Sound will begin in 5 seconds

Cross Roads Blues

Chords
01234567891011121314151617181920212223
E
B
G
D
A
E
B
0 1 2 3 4 5 6 7 8 9 10 11 12 13 14 15 16 17 18 19 20 21 22 23
Song Science #1: How Pros Use 6 Chords to Write Hit Songs
(/) Slide Up  (\) Slide Down  (h) Hammer On  (p) Pull Off  (b) Bend (r) Release (v) Vibrato

Stave 1:

D|--10/12--12--12--12--12--12--------------------5--
B|--10-12--12--12--12--12--12-----11----------------
G|--10-12--12--12--12--12--12---------12--10--3-----
D|--------------------------------------------------
G|-----0---------------0-------0--------------3--0--
D|--------------------------------------------------

Stave 2:

D|--------------------------------
B|--------------------------------
G|--0--0--0--0--0--0--0-----------
D|--3--3--2--2--1--1--0-----------
G|--0--0--0--0--0--0--0--5--5--5--
D|-----------------------0--0--0--

Stave 3:

D|--12--12--12--12--12--12--12-----------------5--3--3--3--3--3--3-----------------5--3--3--3--
B|--12--12--12--12--12--12--12--10----------------3--3--3--3--3--3--10----------------3--3--3--
G|--12--12--12--12--12--12--12------12--10--3---------------------------12--10--3--------------
D|---------------------------------------------------------------------------------------------
G|--0-----------0-----------0---------------3--0--0--0--0--0--0--0--------------3--0--0--0--0--
D|---------------------------------------------------------------------------------------------

Stave 4:

D|--5--8--7--5--8--7--5--
B|--5--5--5--5--5--5--5--
G|--5--5--5--5--5--5--5--
D|-----------------------
G|--0--0--0--0--0--0--0--
D|-----------------------

Stave 5:

D|--5--3--0--------------------------
B|-----------------------------------
G|--------------3--3--0--0-----0-----
D|--------------------------3--------
G|--0--0-----0--0--0--0-----------0--
D|-----------------------------------

Stave 6:

D|-----
B|-----
G|--0--
D|--5--
G|--0--
D|-----

http://www.guitartabcreator.com
Guitar Tab Creator is intended to store guitar tab created through the tool. It currently does not support in-line text editing. Any text you place in here will be lost. If you need to comment on your tab, please use the "Tab Notes" section located below.