Sound will begin in 5 seconds

Come On in My Kitchen

Chords
01234567891011121314151617181920212223
E
B
G
D
A
E
B
0 1 2 3 4 5 6 7 8 9 10 11 12 13 14 15 16 17 18 19 20 21 22 23
Song Science #1: How Pros Use 6 Chords to Write Hit Songs
(/) Slide Up  (\) Slide Down  (h) Hammer On  (p) Pull Off  (b) Bend (r) Release (v) Vibrato

Stave 1:

D|-------------12-------10/12-12\10-------
B|----------12----------------------11/12-
G|-------10/12-------------------------12-
D|-0-0-0----------0-0-0-------------------
G|-0-0-0----0-----0-0-0----0--0--------0--
D|----------------------------------------

Stave 2:

D|-----------------
B|-0-0-0-0---------
G|-0-0-0-0---------
D|-3-2-1-0-----7---
G|---------1/7-----
D|---------------0-

Stave 3:

D|-------------10/12-------10/12-10/12\10----------------10/12-10/12-10-------12--------
B|-------10/12----------------------------10/11-------------------------10/12-----------
G|-10/12----------------------------------------12-------------------------------12-----
D|--------------------------------------------------------------------------------------
G|-------------------0-0-0-------------------------0-0-0----------------------------0-0-
D|--------------------------------------------------------------------------------------

Stave 4:

D|-10/12-10/12\10-----------------------------------------------------------------------------------------
B|----------------10/11----------------10/12-10/12-----10/12-12----------------------11----11-------------
G|----------------------12-------10-12--------------------------10-------------10-12----12----10----12-12-
D|-----------------------------------------------------------------12----------------------------12-------
G|-------------------------0-0-0-------------------0-0----------------12-12-12----------------------------
D|--------------------------------------------------------------------------------------------------------

http://www.guitartabcreator.com
Guitar Tab Creator is intended to store guitar tab created through the tool. It currently does not support in-line text editing. Any text you place in here will be lost. If you need to comment on your tab, please use the "Tab Notes" section located below.