Sound will begin in 5 seconds

Impossible Dreams

Chords
01234567891011121314151617181920212223
E
B
G
D
A
E
B
0 1 2 3 4 5 6 7 8 9 10 11 12 13 14 15 16 17 18 19 20 21 22 23
Song Science #1: How Pros Use 6 Chords to Write Hit Songs
(/) Slide Up  (\) Slide Down  (h) Hammer On  (p) Pull Off  (b) Bend (r) Release (v) Vibrato

Stave 1:

E|--------------------------------------------------------------------------------------------------0--
B|--------------------------------------------------------------------------------------------------0--
G|--------------------------------------------------------------------------------------------------0--
D|--------------------------------------------------------------------------------------------------2--
A|--2--2--------3--2--------2--2-----5--3--2--------2--2--------3--2--------2--2--------2--2--------2--
E|--0--0--------------3--2--0--0--------------3--2--0--0--------------3--2--0--0--------0--0--------0--

Stave 2:

E|--------------------------------------------------------------------------------
B|--------------------------------------------------------------------------------
G|--------------------------------------------------------------------------------
D|--------------------------------------------------------------------------------
A|--2--2--------------------2--2--------3--2--------2--2-----5--3--2--------2--2--
E|--0--0--------------------0--0--------------3--2--0--0--------------3--2--0--0--

Stave 3:

E|--------------------------------------------------------------------------------
B|--------------------------------------------------------------------------------
G|--------------------------------------------------------------------------------
D|--------------------------------------------------------------------------------
A|--2--2--------3--2--------2--2-----5--3--2--------2--2--------2-----3--3-----2--
E|--0--0--------------3--2--0--0--------------3--2--0--0--------0-----0--0-----0--

Stave 4:

E|-----------------------------------------------------
B|--3--3-----------------------------------------------
G|--2--2--------2--------------------------------------
D|--0--0--------1--------------------------------------
A|-----------------------2--2--------3--2--------2--2--
E|--2--2--------2--------0--0--------------3--2--0--0--

Stave 5:

E|--------------------0--0--0--0--2--2--2--2--3--3--3--3--4--4--4--4--
B|--------------------0--0--0--0--3--3--3--3--3--3--3--3--5--5--5--5--
G|--------------------0--0--0--0--2--2--2--2--4--4--4--4--4--4--4--4--
D|--------------------2--2--2--2--4--4--4--4--5--5--5--5--6--6--6--6--
A|--2--2--2--2--2--2--------------------------------------------------
E|--0--0--0--0--0--0--------------------------------------------------

Stave 6:

E|--5--5--5--5--6--6--6--7-----7-----7-----7-----7-----7-----7--7-----7-----7-----7--
B|--5--5--5--5--7--7--7--7-----7-----7-----7-----7-----7-----7--7-----7-----7-----7--
G|--5--5--5--5--6--6--6--9-----9-----9-----9-----9-----9-----8--8-----8-----8-----8--
D|--7--7--7--7--8--8--8--9-----9-----9-----9-----9-----9-----9--9-----9-----9-----9--
A|-----------------------------------------------------------------------------------
E|-----------------------------------------------------------------------------------

Stave 7:

E|------------------------------------------------------------------------------------------------
B|--------------------------------------------------------------4---------------------------------
G|--5-----------5-----------4-----------4-----------5-----------4-----------0---------------------
D|--7-----------4-----------5-----------2-----------4-----------------------2---------------------
A|------------------------------------------------------------------------------------------------
E|-----------------------------------------------------------------------------------0--2--3--4v--

Stave 8:

E|--------------------------------------------------------------------------------------
B|--------------------------------------------------------------------------------------
G|--------------------------------------------------5--5--5--5--4-----------------------
D|--------------------------------------------------4--4--4--4--4-----------------------
A|--------------------------------------------------------------2--------2--2-----2--2--
E|--------------------------------------------------------------2--------0--0-----0--0--

Stave 9:

E|--
B|--
G|--
D|--
A|--
E|--

Stave 10:

E|--12p0h12--14p12\7p0h7--10p8p7----------0----------------------------------
B|--------------------------------10p8p7-----3p1p0---------------------------
G|--------------------------------------------------2p0--2/4-----2h4p2p0--4--
D|---------------------------------------------------------------------------
A|---------------------------------------------------------------------------
E|---------------------------------------------------------------------------

Stave 11:

E|------------------------8--5--------------9--6-----------------------------------------
B|--3--3h5p0h1h3p1p0h1/5--------5-----------------7-------------7------------------------
G|---------------------------------5-----------------6-----7h9-----9--8h9p8h9p8h9p8h9p8--
D|------------------------------------7--8--------------8--------------------------------
A|---------------------------------------------------------------------------------------
E|---------------------------------------------------------------------------------------

Stave 12:

E|-----------------------------------------------------------------------12--
B|-------------------------------------------------------------12p11h12------
G|---------------------------------------------------12p11h12----------------
D|-----------------------12----------------12p11h12--------------------------
A|-------------------12------15--14p13h14------------------------------------
E|--0--3--7--12--14----------------------------------------------------------

http://www.guitartabcreator.com
Guitar Tab Creator is intended to store guitar tab created through the tool. It currently does not support in-line text editing. Any text you place in here will be lost. If you need to comment on your tab, please use the "Tab Notes" section located below.