Sound will begin in 5 seconds

thing 3

Chords
01234567891011121314151617181920212223
E
B
G
D
A
E
B
0 1 2 3 4 5 6 7 8 9 10 11 12 13 14 15 16 17 18 19 20 21 22 23
Song Science #1: How Pros Use 6 Chords to Write Hit Songs
(/) Slide Up  (\) Slide Down  (h) Hammer On  (p) Pull Off  (b) Bend (r) Release (v) Vibrato

(W|WW) Whole (H|HH) Half (Q|QQ) Quarter (E|EE) 8th (S|SS) 16th (T|TT) 32nd (X|XX) 64th

Stave 1:
t: H H H H H H H W H H H H H H W
D|-----------------------------------------------
A|-----------------------------------------------
F|-----------------------------------------------
C|--6--5--0--------------------------------5--0--
G|-----------4--3--0-----3--4--5--------3--------
C|--------------------6-----------0--3-----------

Stave 2:
t: H H H H H H H W H H H H H H H H H H H H H H W H H H H H H
D|-----------------------------------------------------------------------------------------
A|-----------------------------------------------------------------------------------------
F|-----------------------------------------------------------------------------------------
C|--0--0--0--0--0--3--0--------------------------------------------------------------------
G|--6--6--6--6--6--3--0--1--1--1--1--1--1--1--3--3--3--3--5--5--5--5--3--3--3--3--3--3--3--
C|-----------------------1--1--1--1--1--1--1--1--1--1--1--3--3--3--3--3--3--3--3--3--3--3--

Stave 3:
t: W W W W W
D|----------------
A|----------------
F|----------------
C|----------------
G|--7--5--7--8--0--
C|--5--5--5--7--0--

http://www.guitartabcreator.com
Guitar Tab Creator is intended to store guitar tab created through the tool. It currently does not support in-line text editing. Any text you place in here will be lost. If you need to comment on your tab, please use the "Tab Notes" section located below.