Sound will begin in 5 seconds

thing 2

Chords
01234567891011121314151617181920212223
E
B
G
D
A
E
B
0 1 2 3 4 5 6 7 8 9 10 11 12 13 14 15 16 17 18 19 20 21 22 23
Song Science #1: How Pros Use 6 Chords to Write Hit Songs
(/) Slide Up  (\) Slide Down  (h) Hammer On  (p) Pull Off  (b) Bend (r) Release (v) Vibrato

Stave 1:

E|-----------------
B|-----------------
G|-----------------
D|-----------------
A|--7--0--3--7--0--
E|-----------------

Stave 2:

E|-----------------
B|-----------------
G|-----------------
D|-----------------
A|--7-----3--7-----
E|-----3--------0--

Stave 3:

E|-----------------
B|-----------------
G|-----------------
D|-----------------
A|--7-----3--5-----
E|-----3--------0--

Stave 4:

E|-----------------
B|-----------------
G|--5--------------
D|-----------------
A|--------0--5-----
E|-----3--------2--

Stave 5:

E|-----------------
B|-----------------
G|-----------------
D|-----------------
A|--7--5-----1--0--
E|--------1--------

Stave 6:

E|-----------------------------------------------
B|-----------------------------------------------
G|-----------------------------------------------
D|--2-----------1--2-----------1--2--3-----------
A|--------2--1-----------2--1-----------1--0--7--
E|-----0--2--1--------1--2--1-----------1--0-----

Stave 7:

E|----------------
B|----------------
G|----------------
D|----------------
A|--5-----1--1--0--
E|--5--3--1--1--0--

Stave 8:

E|-------------------------------
B|-------------------------------
G|-------------------------------
D|-------------------------------
A|--5--5--5--5--3--7--3--3--3--3--
E|--3--3--3--3--3--3--5--5--5--5--

Stave 9:

E|-------------------
B|-------------------
G|-------------------
D|-------------------
A|----5--7--3--2--0--
E|----3--5--3--2--0--

Stave 10:

E|-------------------
B|-------------------
G|-------------------
D|-------------------
A|-------3--6-----3--
E|----6--------3-----

Stave 11:

E|-----------------
B|-----------------
G|-----------------
D|-----5--------3--
A|--------3--6-----
E|--3--------------

http://www.guitartabcreator.com
Guitar Tab Creator is intended to store guitar tab created through the tool. It currently does not support in-line text editing. Any text you place in here will be lost. If you need to comment on your tab, please use the "Tab Notes" section located below.