Sound will begin in 5 seconds

Omega

Chords
01234567891011121314151617181920212223
E
B
G
D
A
E
B
0 1 2 3 4 5 6 7 8 9 10 11 12 13 14 15 16 17 18 19 20 21 22 23
Song Science #1: How Pros Use 6 Chords to Write Hit Songs
(/) Slide Up  (\) Slide Down  (h) Hammer On  (p) Pull Off  (b) Bend (r) Release (v) Vibrato

Stave 1:

E|-------------------------------------------7-----
B|--------------------------------------4h5-----6--
G|--4--x--4--x--5--5--2--4-----x--4--x-------------
D|--4--x--4--x--5--5--2--4-----x--4--x-------------
A|-------------------------------------------------
E|-------------------------------------------------

Stave 2:

E|-------------------------------------------7--8--
B|--------------------------------------4h5--------
G|--4--x--4--x--5--5--2--4-----x--4--x-------------
D|--4--x--4--x--5--5--2--4-----x--4--x-------------
A|-------------------------------------------------
E|-------------------------------------------------

Stave 3:

E|-----------------------------------------------------
B|-----------------------------------------------------
G|-----------------------------------------------------
D|-----------------------------------------------------
A|--2--2--3--3--5--5--3--2--------2--3--3--5--5--3--3--
E|--2--2--3--3--5--5--3--2--------2--3--3--5--5--3--3--

Stave 4:

E|-----------------------------------7--13--------------------------------------------------------
B|-----------------------------------6--12--------------------------------------------------------
G|------------------------------------------------------------------------------------------------
D|------------------------------------------------------------------------------------------------
A|--2-----3-----2-----3--2---------------------------2-----3-----2-----3--2-------------2h3p2-----
E|--2-----3-----2-----3--2---------------------------2-----3-----2-----3--2--------2h3---------3--

Stave 5:

E|----------------16-------------------------------16-----16----------
B|--14-----17--------------------12--14-----17----------------17--16--
G|-----------------------11--13---------------------------------------
D|--------------------------------------------------------------------
A|--------------------------------------------------------------------
E|--------------------------------------------------------------------

Stave 6:

E|----------------16-------------------------------16-----16b
B|--14-----17--------------------12--14-----17---------------
G|-----------------------11--13------------------------------
D|-----------------------------------------------------------
A|-----------------------------------------------------------
E|-----------------------------------------------------------

http://www.guitartabcreator.com
Guitar Tab Creator is intended to store guitar tab created through the tool. It currently does not support in-line text editing. Any text you place in here will be lost. If you need to comment on your tab, please use the "Tab Notes" section located below.