Sound will begin in 5 seconds

Abstulit

Chords
01234567891011121314151617181920212223
E
B
G
D
A
E
B
0 1 2 3 4 5 6 7 8 9 10 11 12 13 14 15 16 17 18 19 20 21 22 23
Song Science #1: How Pros Use 6 Chords to Write Hit Songs
(/) Slide Up  (\) Slide Down  (h) Hammer On  (p) Pull Off  (b) Bend (r) Release (v) Vibrato

Stave 1:

E|--------------------
B|--------------------
G|--------0--------3--
D|--------2--------2--
A|--0--0--0--0--0--0--
E|--------------------

Stave 2:

E|--------------------
B|--------------------
G|--------0--------3--
D|-----2--------2-----
A|--0--------0--------
E|--------------------

Stave 3:

E|-----------------------------------------------------------------------------------
B|-----------------------------------------------------------------------------------
G|-----------------------------------------------------------------------------------
D|-----------------5-----------------------------------------5--------------------8--
A|--0-----5--0--0--------0-----5--0--0--6-----0-----5--0--0--------0-----5--0--0-----
E|-----------------------------------------------------------------------------------

Stave 4:

E|--------------------------------
B|--------------------------------
G|--------------------------------
D|-----------2-----3-----------5--
A|--0-----0-----0--------0--0-----
E|--------------------------------

Stave 5:

E|-----------------------------------
B|-----------------------------------
G|-----------------------------------
D|--7--------2-----3-----------5--7--
A|--------0-----0--------0--0--------
E|-----------------------------------

Stave 6:

E|-----------------------------------------------------------------
B|-----------------------------------------------------------------
G|--------------------------------------------------------------3--
D|--------------1--2-----3--2--1-----------------1--2-----3--2-----
A|--0-----1--4-----------------------0-----1--4--------------------
E|-----------------------------------------------------------------

Stave 7:

E|--6--6--6--6--6--5-----6--6--6--6--6--7-----
B|--5--5--5--5--5--4-----5--5--5--5--5--6-----
G|--------------------------------------------
D|--------------------------------------------
A|--------------------------------------------
E|--------------------------------------------

Stave 8:

E|--------------------
B|--------------------
G|--------0--3--------
D|-----2--------------
A|--0-----------------
E|--------------------

http://www.guitartabcreator.com
Guitar Tab Creator is intended to store guitar tab created through the tool. It currently does not support in-line text editing. Any text you place in here will be lost. If you need to comment on your tab, please use the "Tab Notes" section located below.