Sound will begin in 5 seconds

Dirt Man Rhythm Guitar

Chords
01234567891011121314151617181920212223
E
B
G
D
A
E
B
0 1 2 3 4 5 6 7 8 9 10 11 12 13 14 15 16 17 18 19 20 21 22 23
Song Science #1: How Pros Use 6 Chords to Write Hit Songs
(/) Slide Up  (\) Slide Down  (h) Hammer On  (p) Pull Off  (b) Bend (r) Release (v) Vibrato

(W|WW) Whole (H|HH) Half (Q|QQ) Quarter (E|EE) 8th (S|SS) 16th (T|TT) 32nd (X|XX) 64th

Stave 1:
t: Q Q Q Q H Q Q Q Q H Q Q Q Q Q Q Q Q Q Q Q Q Q Q Q Q
E|---------------------------------------------------------------------------------------------------
B|---------------------------------------------------------------------------------------------------
G|---------------------------------------------------------------------------------------------------
D|--4--4-----4--4-----8-----4--4-----4--4-----8-----4--4--2--4--4--2--6-4-----4--4--2--4--4--2--6-4--
A|--4--4-----4--4-----8-----4--4-----4--4-----8-----4--4--2--4--4--2--6-4-----4--4--2--4--4--2--4-4--
E|--2--2-----2--2-----6-----2--2-----2--2-----6-----2--2--0--2--2--0--4\2-----2--2--0--2--2--0--4\2--

Stave 2:
t: Q Q Q Q Q Q Q Q Q Q Q Q Q Q Q Q Q Q Q Q Q Q Q Q Q Q Q Q Q Q Q Q Q Q Q Q Q Q Q Q Q Q Q Q Q Q Q Q Q W W W W W W
E|--------------------------------------------------------------------------------------------------------------------------------------------------------------------------
B|--------------------------------------------------------------------------------------------------------------------------------------------------------------------------
G|--------------------------------------------------------------------------------------------------------------------------------------------------------------------------
D|--3--3--3--3--3--3--3--3--7--7--7--7--5--5--5--5--4--4--2--4--4--2--6-4-----3--3--3--3--3--3--3--3--5--5--5--5--7--7--7--7--4--4--2--4--4--2--6-4--4--4--2--4--4--2--6----
A|--3--3--3--3--3--3--3--3--7--7--7--7--5--5--5--5--4--4--2--4--4--2--6-4-----3--3--3--3--3--3--3--3--5--5--5--5--7--7--7--7--4--4--2--4--4--2--6-4--4--4--2--4--4--2--6----
E|--1--1--1--1--1--1--1--1--5--5--5--5--3--3--3--3--2--2--0--2--2--0--4\2-----1--1--1--1--1--1--1--1--3--3--3--3--5--5--5--5--2--2--0--2--2--0--4\2--2--2--0--2--2--0--4\---

http://www.guitartabcreator.com
Guitar Tab Creator is intended to store guitar tab created through the tool. It currently does not support in-line text editing. Any text you place in here will be lost. If you need to comment on your tab, please use the "Tab Notes" section located below.