EL NECIO

Chords

01234567891011121314151617181920212223
E
B
G
D
A
E
B
0 1 2 3 4 5 6 7 8 9 10 11 12 13 14 15 16 17 18 19 20 21 22 23
(/) Slide Up  (\) Slide Down  (h) Hammer On  (p) Pull Off  (b) Bend (r) Release (v) Vibrato

Stave 1:

E|--------3--2--0--0--3--2--0-----------------------3--2--0--0--3--2--0--0---------------------------0--2--0--0--0--2--0--0--
B|--------3--3--1--1--3--3--1-----------------------3--3--1--1--3--3--1--1---------------------------0--3--1--1--0--3--1--3--
G|--------0--2--0--0--0--2--0--2--0-----2--0-----0--0--2--0--0--0--2--0--0--0p2--2b3--2--0-----------0--2--0--0--0--2--0--3--
D|--------0--0--2--2--0--0--2--------2--------2-----0--0--2--2--0--0--2--2------------------2--0-----2--0--2--2--2--0--2--3--
A|--------2--0--3--3--2--0--3-----------------------2--0--3--3--2--0--3--3------------------------2--2--0--3--3--2--0--3--0--
E|--0--2--3--x--0--0--3--x--0-----------------------3--x--0--0--3--x--0--0---------------------------0--x--0--0--0--x--0--0--

Stave 2:

E|--0--0--2-----------------------------------------------------------------------------------------------------------
B|--2--0--3-----------------------------------------------------------------------------------------------------------
G|--2--0--2-----------------------------------------------------------------------------------------------------------
D|--2--2--0-----------------------2--0--2--------2--0--2--------2--0--2--2--0-----------------2--0--2--------2--0--2--
A|--0--2--0--0--2--3--2--1-----------------------------------------------------1--0-----------------------------------
E|--0--0--x-----------------0--0-----------0--0-----------0--0-----------------------3--0--0-----------0--0-----------

Stave 3:

E|-----------------------------------------------------------------------------------------------------------------------------------------------------
B|-----------------------------------------------------------------------------------------------------------------------------------------------------
G|--------------------------------------------------------------------------------------------------------2--0-----------------------------------------
D|--------2--0--2--2--0-----------------2--0--2--------2--0--2--------2--0--2--2--0--------------------2--------2--1-----5--4--0-----4--2--0-----------
A|-----------------------1--0--------------------------------------------------------1--0--------0--3-----------------3-----------------------4--2--0--
E|--0--0-----------------------3--0--0-----------0--0-----------0--0-----------------------3--------------------------------------0--------------------

Stave 4:

E|--------------------5--4--3-----------------------------------------5--4--3-----------------------------
B|--------------------5--4--3-----------------------------------------5--4--3-----------------------------
G|--------------------6--5--4-----------------------------------------6--5--4-----------------------------
D|--------------------7--6--5-----4--2--0-----------------------------7--6--5--4--2--0--------------------
A|-----3--------3--0--7--6--5--------------4--2--0-----3--------3--0--7--6--5-----------4--2--0-----------
E|--3-----0--3--------5--4--3--0--------------------3-----0--3--------5--4--3--------------------3--0-----

							http://www.guitartabcreator.com
genre
Instruments
{"strings":[[[".",".",3,2,0,0,3,2,0,".",".",".",".",".",".",".",3,2,0,0,3,2,0,0,".",".",".",".",".",".",".",".",".",".",".",0,2,0,0,0,2,0,0],[".",".",3,3,1,1,3,3,1,".",".",".",".",".",".",".",3,3,1,1,3,3,1,1,".",".",".",".",".",".",".",".",".",".",".",0,3,1,1,0,3,1,3],[".",".",0,2,0,0,0,2,0,2,0,".",2,0,".",0,0,2,0,0,0,2,0,0,0,"p",2,2,"b",3,2,0,".",".",".",0,2,0,0,0,2,0,3],[".",".",0,0,2,2,0,0,2,".",".",2,".",".",2,".",0,0,2,2,0,0,2,2,".",".",".",".",".",".",".",".",2,0,".",2,0,2,2,2,0,2,3],[".",".",2,0,3,3,2,0,3,".",".",".",".",".",".",".",2,0,3,3,2,0,3,3,".",".",".",".",".",".",".",".",".",".",2,2,0,3,3,2,0,3,0],[0,2,3,"x0",0,0,3,"x0",0,".",".",".",".",".",".",".",3,"x0",0,0,3,"x0",0,0,".",".",".",".",".",".",".",".",".",".",".",0,"x0",0,0,0,"x0",0,0]],[[0,0,2,".",".",".",".",".",".",".",".",".",".",".",".",".",".",".",".",".",".",".",".",".",".",".",".",".",".",".",".",".",".",".",".",".",".","."],[2,0,3,".",".",".",".",".",".",".",".",".",".",".",".",".",".",".",".",".",".",".",".",".",".",".",".",".",".",".",".",".",".",".",".",".",".","."],[2,0,2,".",".",".",".",".",".",".",".",".",".",".",".",".",".",".",".",".",".",".",".",".",".",".",".",".",".",".",".",".",".",".",".",".",".","."],[2,2,0,".",".",".",".",".",".",".",2,0,2,".",".",2,0,2,".",".",2,0,2,2,0,".",".",".",".",".",2,0,2,".",".",2,0,2],[0,2,0,0,2,3,2,1,".",".",".",".",".",".",".",".",".",".",".",".",".",".",".",".",".",1,0,".",".",".",".",".",".",".",".",".",".","."],[0,0,"x0",".",".",".",".",".",0,0,".",".",".",0,0,".",".",".",0,0,".",".",".",".",".",".",".",3,0,0,".",".",".",0,0,".",".","."]],[[".",".",".",".",".",".",".",".",".",".",".",".",".",".",".",".",".",".",".",".",".",".",".",".",".",".",".",".",".",".","_",".",".",".",".",".",".",".",".",".",".",".",".",".",".",".",".",".","."],[".",".",".",".",".",".",".",".",".",".",".",".",".",".",".",".",".",".",".",".",".",".",".",".",".",".",".",".",".",".","_",".",".",".",".",".",".",".",".",".",".",".",".",".",".",".",".",".","."],[".",".",".",".",".",".",".",".",".",".",".",".",".",".",".",".",".",".",".",".",".",".",".",".",".",".",".",".",".",".","_",".",".",".",2,0,".",".",".",".",".",".",".",".",".",".",".",".","."],[".",".",2,0,2,2,0,".",".",".",".",".",2,0,2,".",".",2,0,2,".",".",2,0,2,2,0,".",".",".","_",".",".",2,".",".",2,1,".",5,4,0,".",4,2,0,".",".","."],[".",".",".",".",".",".",".",1,0,".",".",".",".",".",".",".",".",".",".",".",".",".",".",".",".",".",".",1,0,".","_",0,3,".",".",".",".",".",3,".",".",".",".",".",".",".",4,2,0],[0,0,".",".",".",".",".",".",".",3,0,0,".",".",".",0,0,".",".",".",0,0,".",".",".",".",".",".",".",3,"_",".",".",".",".",".",".",".",".",".",".",".",0,".",".",".",".",".","."]],[[".",".",".",".",".",".",5,4,3,".",".",".",".",".",".",".",".",".",".",".",".",".",5,4,3,".",".",".",".",".",".",".",".","_"],[".",".",".",".",".",".",5,4,3,".",".",".",".",".",".",".",".",".",".",".",".",".",5,4,3,".",".",".",".",".",".",".",".","_"],[".",".",".",".",".",".",6,5,4,".",".",".",".",".",".",".",".",".",".",".",".",".",6,5,4,".",".",".",".",".",".",".",".","_"],[".",".",".",".",".",".",7,6,5,".",4,2,0,".",".",".",".",".",".",".",".",".",7,6,5,4,2,0,".",".",".",".",".","_"],[".",3,".",".",3,0,7,6,5,".",".",".",".",4,2,0,".",3,".",".",3,0,7,6,5,".",".",".",4,2,0,".",".","_"],[3,".",0,3,".",".",5,4,3,0,".",".",".",".",".",".",3,".",0,3,".",".",5,4,3,".",".",".",".",".",".",3,0,"_"]]],"numberofstrings":6,"notes":["E","B","G","D","A","E","B"],"capo":0,"stringnotes":["E4","B3","G3","D3","A2","E2"],"comments":["Stave 1:","Stave 2:","Stave 3:","Stave 4:"],"timing":[["W","W","W","W","W","W","W","W","W","W","W","W","W","W","W","W","W","W","W","W","W","W","W","W","W",null,"W","W",null,"W","W","W","W","W","W","W","W","W","W","W","W","W","W"],["W","W","W","W","W","W","W","W","W","W","W","W","W","W","W","W","W","W","W","W","W","W","W","W","W","W","W","W","W","W","W","W","W","W","W","W","W","W","W","W","W","W","W","W","W","W","W","W","W","W","W"],["W","W","W","W","W","W","W","W","W","W","W","W","W","W","W","W","W","W","W","W","W","W","W","W","W","W","W","W","W","W",null,"W","W","W","W","W","W","W","W","W","W","W","W","W","W","W","W","W","W","W","W"],["W","W","W","W","W","W","W","W","W","W","W","W","W","W","W","W","W","W","W","W","W","W","W","W","W","W","W","W","W","W","W","W","W"]],"timingvisible":false,"tabcounter":34,"stave":3,"totalstaves":4,"instrument":"6guitar","selectedtuning":"6_standard","version":"13"}

Member for

1 month 3 weeks
Submitted by DniGma on Wed, 2020-11-25 15:41