Sound will begin in 5 seconds

Chromatic Scale Forms

01234567891011121314151617181920212223
E
B
G
D
A
E
B
0 1 2 3 4 5 6 7 8 9 10 11 12 13 14 15 16 17 18 19 20 21 22 23
Song Science #1: How Pros Use 6 Chords to Write Hit Songs
(/) Slide Up  (\) Slide Down  (h) Hammer On  (p) Pull Off  (b) Bend (r) Release (v) Vibrato

Stave 1:

E|-----------------------------------------------------------------------------------0--1--2--3--4--
B|--------------------------------------------------------------------0--1--2--3--4-----------------
G|-----------------------------------------------------0--1--2--3-----------------------------------
D|--------------------------------------0--1--2--3--4-----------------------------------------------
A|--------------------0--1--2--3--4-----------------------------------------------------------------
E|--0--1--2--3--4-----------------------------------------------------------------------------------

Stave 2:

E|--5--6--7--8-----9--10--11--12--
B|--------------------------------
G|--------------------------------
D|--------------------------------
A|--------------------------------
E|--------------------------------

Stave 3:

E|-----------------------------------------------------------------------------------------1--2--3--4--
B|-----------------------------------------------------------------------------2--3--4--5--------------
G|-----------------------------------------------------------------2--3--4--5--------------------------
D|--------------------------------------------------3--4--5--6-----------------------------------------
A|-----------------------------------4--5--6--7--------------------------------------------------------
E|--0--1--2--3--4-----5--6--7--8-----------------------------------------------------------------------

Stave 4:

E|--5--6--7--8-----9--10--11--12--
B|--------------------------------
G|--------------------------------
D|--------------------------------
A|--------------------------------
E|--------------------------------

Stave 5:

E|-----------------------------------------------------------------------------------------
B|-----------------------------------------------------------------------------------------
G|-----------------------------------------------------------------------------6--7--8--9--
D|----------------------------------------------------------------7--8--9--10--------------
A|--------------------------------------------------8--9--10--11---------------------------
E|--0--1--2--3--4-----5--6--7--8-----9--10--11--12-----------------------------------------

Stave 6:

E|--------------5--6--7--8-----9--10--11--12--
B|--6--7--8--9--------------------------------
G|--------------------------------------------
D|--------------------------------------------
A|--------------------------------------------
E|--------------------------------------------

Stave 7:

E|----------------------------------------------------------------------------------------
B|----------------------------------------------------------------------------------------
G|----------------------------------------------------------------------------------------
D|----------------------------------------------------------------------------------------
A|------------------------------------------------------------------------12--13--14--15--
E|--0--1--2--3--4-----5--6--7--8-----9--10--11--12-----13--14--15--16---------------------

Stave 8:

E|-----------------------------------------------------9--10--11--12--
B|-------------------------------------10--11--12--13-----------------
G|---------------------10--11--12--13---------------------------------
D|--11--12--13--14----------------------------------------------------
A|--------------------------------------------------------------------
E|--------------------------------------------------------------------

http://www.guitartabcreator.com
Guitar Tab Creator is intended to store guitar tab created through the tool. It currently does not support in-line text editing. Any text you place in here will be lost. If you need to comment on your tab, please use the "Tab Notes" section located below.