SINCE I'VE BEEN LOVING YOU - LED ZEPPELIN

Chords

01234567891011121314151617181920212223
E
B
G
D
A
E
B
0 1 2 3 4 5 6 7 8 9 10 11 12 13 14 15 16 17 18 19 20 21 22 23
(/) Slide Up  (\) Slide Down  (h) Hammer On  (p) Pull Off  (b) Bend (r) Release (v) Vibrato

INTRO I

G|-------------------1-5----1-3-4-5----3--------------------------------------------1-3-5----3-------------------
D|-3-5------1-2-3------------------------5----1-0---0-1-2-3------3------3------3---------------5----5-5----------
A|--------3---------------------------------------3------------3------3------3--------------------------3----3-3-
E|---------------------------------------------------------------------------------------------------------------

INTRO II:

G|--------------------------------------------------------------------------------------------
D|---1-3-5-5----5-5----5---5-6-6----5-3-3----3-1----------------------------------------------
A|-3---------------------6-----------------------5-3-3-5-6----5-5-5-5-5----5-4-4-4-4----4-4-4-
E|--------------------------------------------------------------------------------------------

PART I:

G|---------------5--------------3-4-5---------------5----3--------5-----------------1-3--------5-
D|-----------------0-1-2-3----6---------------1-3-5----------3--------3------1-3--------3----5---
A|-3-3----3-3----------------------------3-----------------3--------3------3---------------------
E|-----------------------------------------------------------------------------------------------

PRE CHORUS I:

G|-------------0-3-5----3---
D|-5---------1------------5-
A|------3-------------------
E|--------------------------

CHORUS I:

G|----------------------------------------------------------------------------------------------------
D|-5----5-5-5----5-5-5----6-6-6----6-6-6-5-3----5-3----3-1--------------------------------------------
A|---------------------------------------------------------5-3-5-6----5-5-5-5-5----5-4-4-4-4----4-4-4-
E|----------------------------------------------------------------------------------------------------

PART II:

G|-----0-3-5-------------1-3-5------0-3-5-------------------------1-3-5-------------1-5-
D|---1--------------3----------3-------------5------1-3----3------------3----3----3-----
A|-3---------3----3----------------------------3-------------3--------------------------
E|--------------------------------------------------------------------------------------

PRE CHORUS II:

G|-3-1-0---------------------------5-4-3-4-5----3-5-4-3-4-5-3---
D|-------5----3-1-0-------------------------------------------5-
A|------------------3-3-3-3-3-3---------------------------------
E|--------------------------------------------------------------

CHORUS II:

G|-----------------------------------------------------------------------------
D|-5-5-0-3-5----5----5-6-6----5-3-5-3----3-1-----------------------------------
A|-------------------------------------------5-3-6----5-5-5-5-5----5-4-4-4-4-4-
E|-----------------------------------------------------------------------------

Stave 9:

G|-----0-3-5-------------1-3-5------0-3-5---------------0-5-5-------------------------------------------------5-
D|---1--------------3----------3-------------5--------1----------------1-2-3-3-3-3---3-3---3-1-3-3---3-3----5---
A|-3---------3----3----------------------------3----3---------3-3----3-------------3-----3---------3------------
E|--------------------------------------------------------------------------------------------------------------

Stave 10:

G|-3-0--------
D|----------1-
A|-----3------
E|------------

							http://www.guitartabcreator.com
Instruments
{"strings":[[[".",".","_",".",".",".",".","_",1,5,"_",1,3,4,5,"_",3,".","_",".",".",".",".",".",".",".","_",".",".","_",".",".","_",".",".","_",1,3,5,"_",3,".","_",".",".",".","_",".","."],[3,5,"_",".",1,2,3,"_",".",".","_",".",".",".",".","_",".",5,"_",1,0,".",0,1,2,3,"_",".",3,"_",".",3,"_",".",3,"_",".",".",".","_",".",5,"_",5,5,".","_",".","."],[".",".","_",3,".",".",".","_",".",".","_",".",".",".",".","_",".",".","_",".",".",3,".",".",".",".","_",3,".","_",3,".","_",3,".","_",".",".",".","_",".",".","_",".",".",3,"_",3,3],[".",".","_",".",".",".",".","_",".",".","_",".",".",".",".","_",".",".","_",".",".",".",".",".",".",".","_",".",".","_",".",".","_",".",".","_",".",".",".","_",".",".","_",".",".",".","_",".","."]],[[".",".",".",".",".","_",".",".","_",".",".",".",".",".","_",".",".",".","_",".",".",".",".",".",".",".","_",".",".",".",".",".","_",".",".",".",".",".","_",".",".","."],[".",1,3,5,5,"_",5,5,"_",5,".",5,6,6,"_",5,3,3,"_",3,1,".",".",".",".",".","_",".",".",".",".",".","_",".",".",".",".",".","_",".",".","."],[3,".",".",".",".","_",".",".","_",".",6,".",".",".","_",".",".",".","_",".",".",5,3,3,5,6,"_",5,5,5,5,5,"_",5,4,4,4,4,"_",4,4,4],[".",".",".",".",".","_",".",".","_",".",".",".",".",".","_",".",".",".","_",".",".",".",".",".",".",".","_",".",".",".",".",".","_",".",".",".",".",".","_",".",".","."]],[[".",".","_",".",".","_",5,".",".",".",".","_",".",3,4,5,"_",".","_",".",".",".",5,"_",3,".",".","_",5,".",".","_",".",".",".","_",1,3,".","_",".",5],[".",".","_",".",".","_",".",0,1,2,3,"_",6,".",".",".","_",".","_",1,3,5,".","_",".",".",3,"_",".",".",3,"_",".",1,3,"_",".",".",3,"_",5,"."],[3,3,"_",3,3,"_",".",".",".",".",".","_",".",".",".",".","_",3,"_",".",".",".",".","_",".",3,".","_",".",3,".","_",3,".",".","_",".",".",".","_",".","."],[".",".","_",".",".","_",".",".",".",".",".","_",".",".",".",".","_",".","_",".",".",".",".","_",".",".",".","_",".",".",".","_",".",".",".","_",".",".",".","_",".","."]],[[".","_",".","_",".",0,3,5,"_",3,"."],[5,"_",".","_",1,".",".",".","_",".",5],[".","_",3,"_",".",".",".",".","_",".","."],[".","_",".","_",".",".",".",".","_",".","."]],[[".","_",".",".",".","_",".",".",".","_",".",".",".","_",".",".",".",".",".","_",".",".","_",".",".",".",".",".",".","_",".",".",".",".",".","_",".",".",".",".",".","_",".",".","."],[5,"_",5,5,5,"_",5,5,5,"_",6,6,6,"_",6,6,6,5,3,"_",5,3,"_",3,1,".",".",".",".","_",".",".",".",".",".","_",".",".",".",".",".","_",".",".","."],[".","_",".",".",".","_",".",".",".","_",".",".",".","_",".",".",".",".",".","_",".",".","_",".",".",5,3,5,6,"_",5,5,5,5,5,"_",5,4,4,4,4,"_",4,4,4],[".","_",".",".",".","_",".",".",".","_",".",".",".","_",".",".",".",".",".","_",".",".","_",".",".",".",".",".",".","_",".",".",".",".",".","_",".",".",".",".",".","_",".",".","."]],[[".",".",0,3,5,".","_",".",".","_",1,3,5,".","_",0,3,5,"_",".",".","_",".",".","_",".",".","_",1,3,5,".","_",".","_",".",1,5],[".",1,".",".",".",".","_",".",3,"_",".",".",".",3,"_",".",".",".","_",5,".","_",1,3,"_",3,".","_",".",".",".",3,"_",3,"_",3,".","."],[3,".",".",".",".",3,"_",3,".","_",".",".",".",".","_",".",".",".","_",".",3,"_",".",".","_",".",3,"_",".",".",".",".","_",".","_",".",".","."],[".",".",".",".",".",".","_",".",".","_",".",".",".",".","_",".",".",".","_",".",".","_",".",".","_",".",".","_",".",".",".",".","_",".","_",".",".","."]],[[3,1,0,".","_",".",".",".",".",".",".",".",".",".","_",5,4,3,4,5,"_",3,5,4,3,4,5,3,"."],[".",".",".",5,"_",3,1,0,".",".",".",".",".",".","_",".",".",".",".",".","_",".",".",".",".",".",".",".",5],[".",".",".",".","_",".",".",".",3,3,3,3,3,3,"_",".",".",".",".",".","_",".",".",".",".",".",".",".","."],[".",".",".",".","_",".",".",".",".",".",".",".",".",".","_",".",".",".",".",".","_",".",".",".",".",".",".",".","."]],[[".",".",".",".",".","_",".","_",".",".",".","_",".",".",".",".","_",".",".",".",".",".","_",".",".",".",".",".","_",".",".",".",".",".","."],[5,5,0,3,5,"_",5,"_",5,6,6,"_",5,3,5,3,"_",3,1,".",".",".","_",".",".",".",".",".","_",".",".",".",".",".","."],[".",".",".",".",".","_",".","_",".",".",".","_",".",".",".",".","_",".",".",5,3,6,"_",5,5,5,5,5,"_",5,4,4,4,4,4],[".",".",".",".",".","_",".","_",".",".",".","_",".",".",".",".","_",".",".",".",".",".","_",".",".",".",".",".","_",".",".",".",".",".","."]],[[".",".",0,3,5,".","_",".",".","_",1,3,5,".","_",0,3,5,"_",".",".","_",".",".",0,5,5,".",".","_",".",".",".",".",".",".",".",".",".",".",".",".",".",".",".",".",".",".","_",".",5],[".",1,".",".",".",".","_",".",3,"_",".",".",".",3,"_",".",".",".","_",5,".","_",".",1,".",".",".",".",".","_",".",1,2,3,3,3,3,".",3,3,".",3,1,3,3,".",3,3,"_",5,"."],[3,".",".",".",".",3,"_",3,".","_",".",".",".",".","_",".",".",".","_",".",3,"_",3,".",".",".",".",3,3,"_",3,".",".",".",".",".",".",3,".",".",3,".",".",".",".",3,".",".","_",".","."],[".",".",".",".",".",".","_",".",".","_",".",".",".",".","_",".",".",".","_",".",".","_",".",".",".",".",".",".",".","_",".",".",".",".",".",".",".",".",".",".",".",".",".",".",".",".",".",".","_",".","."]],[[3,0,".","_","."],[".",".",".","_",1],[".",".",3,"_","."],[".",".",".","_","."]]],"numberofstrings":4,"notes":["G","D","A","E"],"capo":0,"stringnotes":["G2","D2","A1","E1"],"comments":["INTRO I","INTRO II:","PART I:","PRE CHORUS I:","CHORUS I:","PART II:","PRE CHORUS II:","CHORUS II:","Stave 9:","Stave 10:"],"timing":[["W","W","W","W","W","W","W","W","W","W","W","W","W","W","W","W","W","W","W","W","W","W","W","W","W","W","W","W","W",null,"W","W",null,"W","W",null,"W","W","W",null,"W","W","W","W","W","W",null,"W","W"],["W","W","W","W","W",null,"W","W",null,"W","W","W","W","W","W","W","W","W",null,"W","W","W","W","W","W","W","W",null,"W","W","W","W","W",null,"W","W","W","W","W","W","W","W","W"],["W","W","W","W","W",null,"W","W","W","W","W",null,"W","W","W","W",null,"W",null,"W","W","W","W",null,"W","W","W",null,"W","W","W",null,"W","W","W",null,"W","W","W",null,"W","W",null,null,null,"W"],["W","W","W",null,"W","W","W","W",null,"W","W"],["W","W","W","W","W","W","W","W","W",null,"W","W","W",null,"W","W","W","W","W",null,"W","W",null,"W","W","W","W","W","W",null,"W","W","W","W","W","W","W","W","W","W","W","W","W","W","W"],["W",null,"W","W","W","W","W",null,"W","W",null,"W","W","W","W",null,"W","W","W",null,"W","W",null,"W","W","W","W","W",null,"W","W","W","W",null,"W",null,"W","W","W",null,null,null,null,null,null,null,null,null,null,null,"W"],["W","W","W","W",null,"W","W","W","W","W","W","W","W","W","W","W","W","W","W",null,"W","W","W","W","W","W","W","W",null,"W"],["W","W","W","W","W",null,"W",null,"W","W","W","W","W","W","W","W",null,"W","W","W","W","W",null,"W","W","W","W","W",null,"W","W","W","W","W","W","W","W","W"],["W","W","W","W","W","W","W",null,"W","W",null,"W","W","W","W",null,"W","W","W",null,"W","W",null,"W","W","W","W","W","W","W","W","W","W","W","W","W","W","W","W","W","W","W","W","W","W","W","W","W","W","W","W"],["W","W","W",null,"W"]],"timingvisible":false,"tabcounter":5,"stave":9,"totalstaves":10,"instrument":"4bass","selectedtuning":"4bass","version":"13"}

Member for

1 week 3 days
About Me
im dumb
Submitted by dmp00 on Tue, 2020-06-30 12:57