Sound will begin in 5 seconds

Vienna

01234567891011121314151617181920212223
E
B
G
D
A
E
B
0 1 2 3 4 5 6 7 8 9 10 11 12 13 14 15 16 17 18 19 20 21 22 23
Song Science #1: How Pros Use 6 Chords to Write Hit Songs
(/) Slide Up  (\) Slide Down  (h) Hammer On  (p) Pull Off  (b) Bend (r) Release (v) Vibrato

Stave 1:

G|-----3-----------3--5-----------------------------------------7--------------------------------------------
D|--5-----3--6-----------12/0--------3--5--6--5--3-----------------------5--7--8--7--5--------5--7-----------
A|--------------6-----------------1-----------------6--------5-----6--8-----------------8--6--------5-----3--
E|-----------------------------3-----------------------6--5--------------------------------------------3-----

Stave 2:

G|-----------------------------------7-----------------------------------------------------------------------
D|--4--3--------------3--6-----------------------------------------------------7--8--7--5--------------------
A|--------1--------1--------6-----3-----5-----1--------------6--------5--6--8--------------8--6--------5-----
E|-----------1--3--------------6-----------3-----3--1--4--6-----6--5-----------------------------3--5-----3--

Stave 3:

G|-----------------3--2--------------------------4/7--4/7-----------------------------------------------------
D|-----4--3-----3--------5-----3--6--3------------------------5-----7--8--7--5--------7-----5-----4--3--------
A|--3--------1--------------1-----------6------------------6-----8--------------8--6-----5-----3--------1-----
E|-----------------------------------------6--5------------------------------------------------------------1--

Stave 4:

G|----------------------------------------------------------------------------3--6--------------------3--
D|--------------5-----7--8--7--6--------5-----------------4--3----------------------7--8--4--3-----------
A|--1-----1--6-----8--------------8--6--------5--------3--------1-------3--------------------------1-----
E|-----1-----------------------------------5-----5--3--------------1/3-----1--------------------1--------

http://www.guitartabcreator.com
Guitar Tab Creator is intended to store guitar tab created through the tool. It currently does not support in-line text editing. Any text you place in here will be lost. If you need to comment on your tab, please use the "Tab Notes" section located below.