Sound will begin in 5 seconds

Peggy Lee- Fever

01234567891011121314151617181920212223
E
B
G
D
A
E
B
0 1 2 3 4 5 6 7 8 9 10 11 12 13 14 15 16 17 18 19 20 21 22 23
Song Science #1: How Pros Use 6 Chords to Write Hit Songs
(/) Slide Up  (\) Slide Down  (h) Hammer On  (p) Pull Off  (b) Bend (r) Release (v) Vibrato

Stave 1:

G|--------------------------|--------------------------|--
D|-----------------2--------|-----------------2--------|--
A|--0--3--0--3--0--------0--|--0--3--0--3--0--------0--|--
E|--------------------3-----|--------------------3-----|--

Stave 2:

G|--------------------------|--------------------------|--
D|-----------------2--------|-----------------2--------|--
A|--0--3--0--3--0--------0--|--0--3--0--3--0--------0--|--
E|--------------------3-----|--------------------3-----|--

Stave 3:

G|--------------------------|--------------------------|--
D|-----------------2--------|-----------------2--------|--
A|--0--3--0--3--0--------0--|--0--3--0--3--0--------0--|--
E|--------------------3-----|--------------------3-----|--

Stave 4:

G|--------------------------|--
D|-----------------3--------|--
A|--1--4--1--4--1--------1--|--
E|--------------------4-----|--

Stave 5:

G|--------------------------|--------------------------|--
D|-----------------3--------|-----------------3--------|--
A|--1--4--1--4--1--------1--|--1--4--1--4--1--------1--|--
E|--------------------4-----|--------------------4-----|--

Stave 6:

G|--------------------------|--------------------------|--
D|-----------------3--------|-----------------3--------|--
A|--1--4--1--4--1--------1--|--1--4--1--4--1--------1--|--
E|--------------------4-----|--------------------4-----|--

Stave 7:

G|--------------------------|--
D|-----------------4--------|--
A|--2--5--2--5--2--------2--|--
E|--------------------5-----|--

Stave 8:

G|--------------------------|--------------------------|--
D|-----------------4--------|-----------------4--------|--
A|--2--5--2--5--2--------2--|--2--5--2--5--2--------2--|--
E|--------------------5-----|--------------------5-----|--

Stave 9:

G|--------------------------|--------------------------|--
D|-----------------4--------|-----------------4--------|--
A|--2--5--2--5--2--------2--|--2--5--2--5--2--------2--|--
E|--------------------5-----|--------------------5-----|--

Stave 10:

G|-----------------4--------|--
D|--2--5--2--5--2--------2--|--
A|--------------------5-----|--
E|--------------------------|--

Stave 11:

G|-----------------4--------|-----------------4--------|--
D|--2--5--2--5--2--------2--|--2--5--2--5--2--------2--|--
A|--------------------5-----|--------------------5-----|--
E|--------------------------|--------------------------|--

Stave 12:

G|-----------------4--------|-----------------4--------|--
D|--2--5--2--5--2--------2--|--2--5--2--5--2--------2--|--
A|--------------------5-----|--------------------5-----|--
E|--------------------------|--------------------------|--

Stave 13:

G|--------------------------|--
D|-----------------2--------|--
A|--0--3--0--3--0--------0--|--
E|--------------------3-----|--

Stave 14:

G|--------------------------|--------------------------|--
D|-----------------2--------|-----------------2--------|--
A|--0--3--0--3--0--------0--|--0--3--0--3--0--------0--|--
E|--------------------3-----|--------------------3-----|--

Stave 15:

G|--------------------------|--------------------------|--
D|-----------------2--------|-----------------2--------|--
A|--0--3--0--3--0--------0--|--0--3--0--3--0--------0--|--
E|--------------------3-----|--------------------3-----|--

Stave 16:

G|------------|-----------|------------|-----------|------------|-----------|--
D|--2---------|-----------|--2---------|-----------|--2---------|-----------|--
A|------------|--0--------|------------|--0--------|------------|--0--------|--
E|-------3----|-----------|-------3----|-----------|-------3----|-----------|--

http://www.guitartabcreator.com
Guitar Tab Creator is intended to store guitar tab created through the tool. It currently does not support in-line text editing. Any text you place in here will be lost. If you need to comment on your tab, please use the "Tab Notes" section located below.