Sal

01234567891011121314151617181920212223
E
B
G
D
A
E
B
0 1 2 3 4 5 6 7 8 9 10 11 12 13 14 15 16 17 18 19 20 21 22 23
(/) Slide Up  (\) Slide Down  (h) Hammer On  (p) Pull Off  (b) Bend (r) Release (v) Vibrato

Stave 1:

E|------------------------------------------------------------------
B|------------------------------------------------------------------
G|--2--2-------------------------2--2-------------------------------
D|--2--2-------3--3--3--3--3--5--2--2-------3--3--3--3--3-----------
A|--0--0--2h3--3--3--3--3--3--5--0--0--2h3--3--3--3--3--3--3--2-----
E|-------------1--1--1--1--1--3-------------1--1--1--1--1--------3--

Stave 2:

E|------------------------------------------------------
B|------------------------------------------------------
G|--2--2-------------------------2--2-------------------
D|--2--2-------3--3--3--3--3--5--2--2-------2--0--------
A|--0--0--2h3--3--3--3--3--3--5--0--0--2h3--------3--2--
E|-------------1--1--1--1--1--3-------------------------

Stave 3:

E|------------------------------------------------------------------
B|------------------------------------------------------------------
G|--2--2------------------------------------------------------------
D|--2--2-------5--5--5--5-------3--3--3--3--3--3--3--3--3--3--3--3--
A|--0--0--2h3--5--5--5--5--2h3--3--3--3--3--3--3--3--3--3--3--3--3--
E|-------------3--3--3--3-------1--1--1--1--1--1--1--1--1--1--1--1--

Stave 4:

E|-----------------------------------------------------------
B|-----------------------------------------------------------
G|--5--5--5--5--7--7--7--7--7--------------------------------
D|--5--5--5--5--7--7--7--7--7--3--3--3--3--3--3--3--3--3--3--
A|--3--3--3--3--5--5--5--5--5--3--3--3--3--3--3--3--3--3--3--
E|-----------------------------1--1--1--1--1--1--1--1--1--1--

Stave 5:

E|----------------------------------------------------------------------------
B|----------------------------------------------------------------------------
G|--5-------------------------------------5-----------------------------------
D|--5-----5-----3----------------3--------5-----5-----3-----3h5--5/7--5p3-----
A|--3-----5-----3----------3--------5-----3-----5-----3--------------------5--
E|--------3-----1-----3h5-----------------------3-----1-----------------------

Stave 6:

E|-------------------------
B|-------------------------
G|-------------------------
D|--2--0-------------------
A|--------3-----x--x--2h3--
E|-------------------------

Stave 7:

E|----------------------------------------------------------------------------------------8h10--
B|-----------------8----------------------------------------------------------------8h10--------
G|-------5h7--7b9-----7b9r7--5-----5-----4b5r4--5--4b5r4------------------5h7--7/9--------------
D|--5h7-------------------------7-------------------------5--5/7-----5h7------------------------
A|----------------------------------------------------------------------------------------------
E|----------------------------------------------------------------------------------------------

Stave 8:

E|--10b12r10--------------7b8r7--5----------------------------
B|------------10p8h10---------------8--5----------------------
G|----------------------------------------7--5----------5--5--
D|-------------------------------------------------5h7--------
A|------------------------------------------------------------
E|------------------------------------------------------------

							http://www.guitartabcreator.com
Chords

Instruments
{"strings":[[[".",".",".",".",".",".",".",".",".",".",".",".",".",".",".",".",".",".",".",".",".",".",".","."],[".",".",".",".",".",".",".",".",".",".",".",".",".",".",".",".",".",".",".",".",".",".",".","."],[2,2,".",".",".",".",".",".",".",".",".",2,2,".",".",".",".",".",".",".",".",".",".","."],[2,2,".",".",".",3,3,3,3,3,5,2,2,".",".",".",3,3,3,3,3,".",".","."],[0,0,2,"h",3,3,3,3,3,3,5,0,0,2,"h",3,3,3,3,3,3,3,2,"."],[".",".",".",".",".",1,1,1,1,1,3,".",".",".",".",".",1,1,1,1,1,".",".",3]],[[".",".",".",".",".",".",".",".",".",".",".",".",".",".",".",".",".",".",".","."],[".",".",".",".",".",".",".",".",".",".",".",".",".",".",".",".",".",".",".","."],[2,2,".",".",".",".",".",".",".",".",".",2,2,".",".",".",".",".",".","."],[2,2,".",".",".",3,3,3,3,3,5,2,2,".",".",".",2,0,".","."],[0,0,2,"h",3,3,3,3,3,3,5,0,0,2,"h",3,".",".",3,2],[".",".",".",".",".",1,1,1,1,1,3,".",".",".",".",".",".",".",".","."]],[[".",".",".",".",".",".",".",".",".",".",".",".",".",".",".",".",".",".",".",".",".",".",".","."],[".",".",".",".",".",".",".",".",".",".",".",".",".",".",".",".",".",".",".",".",".",".",".","."],[2,2,".",".",".",".",".",".",".",".",".",".",".",".",".",".",".",".",".",".",".",".",".","."],[2,2,".",".",".",5,5,5,5,".",".",".",3,3,3,3,3,3,3,3,3,3,3,3],[0,0,2,"h",3,5,5,5,5,2,"h",3,3,3,3,3,3,3,3,3,3,3,3,3],[".",".",".",".",".",3,3,3,3,".",".",".",1,1,1,1,1,1,1,1,1,1,1,1]],[[".",".",".",".",".",".",".",".",".",".",".",".",".",".",".",".",".",".","."],[".",".",".",".",".",".",".",".",".",".",".",".",".",".",".",".",".",".","."],[5,5,5,5,7,7,7,7,7,".",".",".",".",".",".",".",".",".","."],[5,5,5,5,7,7,7,7,7,3,3,3,3,3,3,3,3,3,3],[3,3,3,3,5,5,5,5,5,3,3,3,3,3,3,3,3,3,3],[".",".",".",".",".",".",".",".",".",1,1,1,1,1,1,1,1,1,1]],[[".","_",".","_",".","_",".",".",".",".","_",".",".","_",".","_",".","_",".","_",".",".",".",".",".",".",".",".",".","."],[".","_",".","_",".","_",".",".",".",".","_",".",".","_",".","_",".","_",".","_",".",".",".",".",".",".",".",".",".","."],[5,"_",".","_",".","_",".",".",".",".","_",".",".","_",5,"_",".","_",".","_",".",".",".",".",".",".",".",".",".","."],[5,"_",5,"_",3,"_",".",".",".",".","_",3,".","_",5,"_",5,"_",3,"_",3,"h",5,5,"/",7,5,"p",3,"."],[3,"_",5,"_",3,"_",".",".",".",3,"_",".",5,"_",3,"_",5,"_",3,"_",".",".",".",".",".",".",".",".",".",5],[".","_",3,"_",1,"_",3,"h",5,".","_",".",".","_",".","_",3,"_",1,"_",".",".",".",".",".",".",".",".",".","."]],[[".",".",".","_",".",".",".",".","."],[".",".",".","_",".",".",".",".","."],[".",".",".","_",".",".",".",".","."],[2,0,".","_",".",".",".",".","."],[".",".",3,"_","x","x",2,"h",3],[".",".",".","_",".",".",".",".","."]],[[".",".",".",".",".",".",".",".",".",".",".",".",".",".",".",".",".",".","_",".",".",".",".",".",".",".",".",".",".",".",".",".",".",".","_",".",".",".",".",".",".",".",".",".",".",".",".",8,"h",10],[".",".",".",".",".",".",".",".",".",8,".",".",".",".",".",".",".",".","_",".",".",".",".",".",".",".",".",".",".",".",".",".",".",".","_",".",".",".",".",".",".",".",".",".",8,"h",10,".",".","."],[".",".",".",5,"h",7,7,"b",9,".",7,"b",9,"r",7,5,".",5,"_",4,"b",5,"r",4,5,4,"b",5,"r",4,".",".",".",".","_",".",".",".",5,"h",7,7,"/",9,".",".",".",".",".","."],[5,"h",7,".",".",".",".",".",".",".",".",".",".",".",".",".",7,".","_",".",".",".",".",".",".",".",".",".",".",".",5,5,"/",7,"_",5,"h",7,".",".",".",".",".",".",".",".",".",".",".","."],[".",".",".",".",".",".",".",".",".",".",".",".",".",".",".",".",".",".","_",".",".",".",".",".",".",".",".",".",".",".",".",".",".",".","_",".",".",".",".",".",".",".",".",".",".",".",".",".",".","."],[".",".",".",".",".",".",".",".",".",".",".",".",".",".",".",".",".",".","_",".",".",".",".",".",".",".",".",".",".",".",".",".",".",".","_",".",".",".",".",".",".",".",".",".",".",".",".",".",".","."]],[[10,"b",12,"r",10,".",".",".",".",".","_",7,"b",8,"r",7,5,".",".",".",".","_",".",".",".",".","."],[".",".",".",".",".",10,"p",8,"h",10,"_",".",".",".",".",".",".",8,5,".",".","_",".",".",".",".","."],[".",".",".",".",".",".",".",".",".",".","_",".",".",".",".",".",".",".",".",7,5,"_",".",".",".",5,5],[".",".",".",".",".",".",".",".",".",".","_",".",".",".",".",".",".",".",".",".",".","_",5,"h",7,".","."],[".",".",".",".",".",".",".",".",".",".","_",".",".",".",".",".",".",".",".",".",".","_",".",".",".",".","."],[".",".",".",".",".",".",".",".",".",".","_",".",".",".",".",".",".",".",".",".",".","_",".",".",".",".","."]]],"numberofstrings":6,"notes":["E","B","G","D","A","E","B"],"capo":0,"stringnotes":["E4","B3","G3","D3","A2","E2"],"comments":["Stave 1:","Stave 2:","Stave 3:","Stave 4:","Stave 5:","Stave 6:","Stave 7:","Stave 8:"],"timing":[["W","W","W","W","W","W","W","W","W","W","W","W","W","W",null,"W","W","W","W","W","W","W","W","W"],["W","W","W",null,"W","W","W","W","W","W","W","W","W","W",null,"W","W","W","W","W","W",null,"W","W"],["W","W","W",null,"W","W","W","W","W","W",null,"W","W","W","W","W","W","W","W","W","W","W","W","W"],["W","W","W","W","W","W","W","W","W","W","W","W","W","W","W","W","W","W","W"],["W","W","W","W","W","W","W","W","W","W",null,"W","W",null,"W",null,"W",null,"W",null,"W","W","W","W",null,"W","W",null,"W","W"],["W","W","W","W","W","W","W",null,"W"],["W",null,"W","W",null,"W","W",null,"W","W","W",null,"W","W","W","W","W","W",null,"W",null,"W",null,"W","W","W",null,"W",null,"W","W","W",null,"W",null,"W",null,"W","W",null,"W","W",null,"W","W",null,"W","W",null,"W","W"],["W",null,"W",null,"W","W",null,"W",null,"W","W","W",null,"W",null,"W","W","W","W","W","W",null,"W",null,"W","W","W"]],"timingvisible":false,"tabcounter":27,"stave":7,"totalstaves":8,"instrument":"6guitar","selectedtuning":"6_standard","version":"13"}

Member for

1 week
Submitted by djjxj on Tue, 2021-01-12 18:27