Sound will begin in 5 seconds

Valhajtheconsumer demo 1

01234567891011121314151617181920212223
E
B
G
D
A
E
B
0 1 2 3 4 5 6 7 8 9 10 11 12 13 14 15 16 17 18 19 20 21 22 23
Song Science #1: How Pros Use 6 Chords to Write Hit Songs
(/) Slide Up  (\) Slide Down  (h) Hammer On  (p) Pull Off  (b) Bend (r) Release (v) Vibrato

Stave 1:

E|---------------------------------------
B|---------------------------------------
G|---------------------------------------
D|-----------------------------------7---
A|-4-7-4-----4-7-4-----4-7-4-------6-----
E|-------4---------4---------4-7-4-------

Stave 2:

E|---------------------
B|---------------------
G|---------------------
D|-------------------7-
A|-4---4---4-------6---
E|---4---4---4-7-4-----

Stave 3:

E|-------------------------------------------------
B|-------------------------------------------------
G|-------------------------------------------------
D|---------------------------6-7---6-7---6-7---6-7-
A|---6-7---6-7---6-7---6-7-4-----4-----4-----4-----
E|-4-----4-----4-----4-----------------------------

Stave 4:

E|-------------------------------------------
B|-------------------------------------------
G|-------------------------------------------
D|-------------------------------------------
A|---4-6-7-6-4---4-6-7-6---4-6-7-6---4-6-7-6-
E|-4-----------4---------4---------4---------

Stave 5:

E|-----------------------------------------
B|-----------------------------------------
G|-----------------------------------------
D|---4-6-7-6---4-6-7-6---4-6-7-6---4-6-7-6-
A|-4---------4---------4---------4---------
E|-----------------------------------------

Stave 6:

E|-----------------------------------------
B|-----------------------------------------
G|-----------------------------------------
D|---6-5-------6-5-------6-5-------6-5-----
A|-------7-6-------7-6-------7-6-------7-6-
E|-4---------4---------4---------4---------

Stave 7:

E|-----------------------------------------
B|-----------------------------------------
G|---6-5-------6-5-------6-5-------6-5-----
D|-------7-6-------7-6-------7-6-------7-6-
A|-4---------4---------4---------4---------
E|-----------------------------------------

Stave 8:

E|-----------------------------------------
B|-4-4-4-4-4-4-4-4-4-4---------------------
G|---------------------2-2-2-2-2-2-2-2-2-2-
D|-----------------------------------------
A|-----------------------------------------
E|-----------------------------------------

Stave 9:

E|---------------------------------------
B|---------------------------------------
G|-------------------------------6-------
D|-------6-7-------6-7-------6-7---7-----
A|-----------------------------------7-6-
E|-4-4-4-----4-4-4-----4-4-4-------------

Stave 10:

E|-------------------------------------------------------------------------
B|-------------------------------------------------------------------------
G|-------------------------------------------------------------------------
D|-----------4-6-7-6-----------4-6-7-6-----------4-6-7-6-----------4-6-7-6-
A|---4-6-7-6-----------4-6-7-6-----------4-6-7-6-----------4-6-7-6---------
E|-4-----------------4-----------------4-----------------4-----------------

http://www.guitartabcreator.com
Guitar Tab Creator is intended to store guitar tab created through the tool. It currently does not support in-line text editing. Any text you place in here will be lost. If you need to comment on your tab, please use the "Tab Notes" section located below.