Sound will begin in 5 seconds

Ilsken ilska

01234567891011121314151617181920212223
E
B
G
D
A
E
B
0 1 2 3 4 5 6 7 8 9 10 11 12 13 14 15 16 17 18 19 20 21 22 23
Song Science #1: How Pros Use 6 Chords to Write Hit Songs
(/) Slide Up  (\) Slide Down  (h) Hammer On  (p) Pull Off  (b) Bend (r) Release (v) Vibrato

Stave 1:

E|--------------
B|--------------
G|--------------
D|--------------
A|--7--6--9--8--
E|--5--4--7--6--

Stave 2:

E|----------------------
B|----------------------
G|----------------------
D|----------------------
A|--7--11--10--7--11--8--
E|--5--9---8---5--9---6--

Stave 3:

E|----------------------
B|----------------------
G|----------------------
D|----------------------
A|--7--8--7--6--3--3--2--
E|--5--5--5--5--1--1--1--

Stave 4:

E|----------------------------------
B|----------------------------------
G|----------------------------------
D|------12------12--13------13--12--
A|--11------11----------11----------
E|----------------------------------

Stave 5:

E|--------------------------------------------
B|--------------------------------------------
G|------------9--10--9------------------------
D|--9--10--9------------9--10--9--------------
A|--------------------------------11--12--11--
E|--------------------------------------------

Stave 6:

E|---------------
B|---------------
G|-----9---------
D|--9--7--9------
A|--7-----7--11--
E|-----------9---

Stave 7:

E|----
B|----
G|----
D|----
A|----
E|----

http://www.guitartabcreator.com
Guitar Tab Creator is intended to store guitar tab created through the tool. It currently does not support in-line text editing. Any text you place in here will be lost. If you need to comment on your tab, please use the "Tab Notes" section located below.