Sound will begin in 5 seconds

Gypsy Jazz Technique Phrase #10 in G6/9 in 3rds

01234567891011121314151617181920212223
E
B
G
D
A
E
B
0 1 2 3 4 5 6 7 8 9 10 11 12 13 14 15 16 17 18 19 20 21 22 23
Song Science #1: How Pros Use 6 Chords to Write Hit Songs
(/) Slide Up  (\) Slide Down  (h) Hammer On  (p) Pull Off  (b) Bend (r) Release (v) Vibrato

Stave 1:

E|--19--17--15--14--17--15--14--12--15--14--12--10--14--12--10--8--12--10--8--7--10--8--7------8--7---------7------------
B|-----------------------------------------------------------------------------------------10--------10--8-----10--8--7--
G|-----------------------------------------------------------------------------------------------------------------------
D|-----------------------------------------------------------------------------------------------------------------------
A|-----------------------------------------------------------------------------------------------------------------------
E|-----------------------------------------------------------------------------------------------------------------------

Stave 2:

E|---------------------------------------------------------------------------------------------------
B|--10--8--7-----8--7--------7-----------------------------------------------------------------------
G|------------9--------9--7-----9--7--5--9--7--5--4--7--5--4-----5--4--------4-----------------------
D|------------------------------------------------------------7--------7--5-----7--5--4--7--5--4-----
A|------------------------------------------------------------------------------------------------7--
E|---------------------------------------------------------------------------------------------------

Stave 3:

E|-----------------------------------------------------------------------------
B|-----------------------------------------------------------------------------
G|-----------------------------------------------------------------------------
D|--5--4--------4--------------------------------------------------------------
A|--------7--5-----7--5--3--7--5--3--2--5--3--2-----3--2--------2--------------
E|-----------------------------------------------5--------5--3-----5--3--2--3--

http://www.guitartabcreator.com
Guitar Tab Creator is intended to store guitar tab created through the tool. It currently does not support in-line text editing. Any text you place in here will be lost. If you need to comment on your tab, please use the "Tab Notes" section located below.