Sound will begin in 5 seconds

Gypsy Jazz Phrase #78 - Over D Rhythm Changes

01234567891011121314151617181920212223
E
B
G
D
A
E
B
0 1 2 3 4 5 6 7 8 9 10 11 12 13 14 15 16 17 18 19 20 21 22 23
Song Science #1: How Pros Use 6 Chords to Write Hit Songs
(/) Slide Up  (\) Slide Down  (h) Hammer On  (p) Pull Off  (b) Bend (r) Release (v) Vibrato

Stave 1:

E|--------------2--5--4--3-------------------------------------------
B|-----------3--------------3----------------------------------------
G|--------2--------------------3-------------------------------------
D|--3--4--------------------------5--3--2--5--4--5p4--3--4--7--------
A|-------------------------------------------------------------4--5--
E|-------------------------------------------------------------------

Stave 2:

E|--------------------------------5--6-----------------------------------------
B|--------------7--------------7--------8--------------------------------------
G|-----------------6--9--6--7--------------7-----------------------------------
D|--------6--7--------------------------------8--5-----------------------------
A|--6--7--------------------------------------------5-----------------7--4--5--
E|-----------------------------------------------------6--4--5--4--5-----------

Stave 3:

E|--14--12--------------------10--6-----------------------------------------
B|----------13-----------------------8----------------------------10--------
G|--------------14--11--8--7------------7--------------------------------7--
D|-----------------------------------------8--7--6--7--9p7--6--7------7-----
A|--------------------------------------------------------------------------
E|--------------------------------------------------------------------------

http://www.guitartabcreator.com
Guitar Tab Creator is intended to store guitar tab created through the tool. It currently does not support in-line text editing. Any text you place in here will be lost. If you need to comment on your tab, please use the "Tab Notes" section located below.