Sound will begin in 5 seconds

Gypsy Jazz Phrase #76 - Arpeggio over Am6 and F#m7b5

Chords
01234567891011121314151617181920212223
E
B
G
D
A
E
B
0 1 2 3 4 5 6 7 8 9 10 11 12 13 14 15 16 17 18 19 20 21 22 23
Song Science #1: How Pros Use 6 Chords to Write Hit Songs
(/) Slide Up  (\) Slide Down  (h) Hammer On  (p) Pull Off  (b) Bend (r) Release (v) Vibrato

Stave 1:

E|-------------------------8--12--8--7--10--9--8-----------------------------------
B|---------------------10-------------------------10--7------------------------10--
G|------------------9------------------------------------9---------------------9---
D|-----------7--10------------------------------------------10--7--------------10--
A|-----7--9--------------------------------------------------------9--7--------9---
E|--8--------------------------------------------------------------------8--5--10--

Stave 2:

E|------------------------8--12-------------8--12--8--------------8--12----------
B|--------------------10----------------10------------10------10---------10------
G|-------------9--11----------------11--------------------11-----------------11--
D|---------10--------------------------------------------------------------------
A|--9--12------------------------------------------------------------------------
E|-------------------------------------------------------------------------------

Stave 3:

E|--------------------------5--8---------------------------------12--14--
B|-----------------------5-----------------------------------13----------
G|-----------------2--5------------------------------11--14--------------
D|-----------2--4--------------------------------14----------------------
A|--------3------------------------------12--15--------------------------
E|--2--5-----------------------------14----------------------------------

Stave 4:

E|------------------------------------12--14--
B|----------------------------10--13----------
G|---------------------9--11------------------
D|--------------7--10-------------------------
A|--------7--9--------------------------------
E|--5--8--------------------------------------

http://www.guitartabcreator.com
Guitar Tab Creator is intended to store guitar tab created through the tool. It currently does not support in-line text editing. Any text you place in here will be lost. If you need to comment on your tab, please use the "Tab Notes" section located below.