Sound will begin in 5 seconds

Gypsy Jazz Phrase #75 - Open string arpeggio pattern over E7 to Am

01234567891011121314151617181920212223
E
B
G
D
A
E
B
0 1 2 3 4 5 6 7 8 9 10 11 12 13 14 15 16 17 18 19 20 21 22 23
Song Science #1: How Pros Use 6 Chords to Write Hit Songs
(/) Slide Up  (\) Slide Down  (h) Hammer On  (p) Pull Off  (b) Bend (r) Release (v) Vibrato

Stave 1:

E|--------------------------1--0--------------------
B|-----------------------3--------1-----------------
G|-----------------1--4--------------2--------------
D|--------------3-----------------------2-----------
A|--------2--5-----------------------------3--0-----
E|--0--4-----------------------------------------4--

Stave 2:

E|---------------------10--13--10-----------------------------------------
B|-----------------12------------------12---------------------------------
G|---------10--13------------------13------10--13------10-----------------
D|--9--12------------------------------------------12------9--12----------
A|----------------------------------------------------------------11--12--
E|------------------------------------------------------------------------

Stave 3:

E|------13--10-------------------------------------------------------------------------
B|--12----------12--9------12--9-------------------------------------------------------
G|---------------------10---------10--7-----10--7--------------------------------------
D|---------------------------------------9---------9--6-----9--6-----------------------
A|-------------------------------------------------------8--------8--5-----8--5--------
E|----------------------------------------------------------------------7--------7--4--

Stave 4:

E|--13--10------10-------------------------------------------------------------------------
B|----------12------12--9--12--9------9----------------------------------------------------
G|--------------------------------10-----10--7--10--7-----7--------------------------------
D|-----------------------------------------------------9-----9--6--9--6-----6--------------
A|-----------------------------------------------------------------------8-----8--5--8--5--
E|-----------------------------------------------------------------------------------------

http://www.guitartabcreator.com
Guitar Tab Creator is intended to store guitar tab created through the tool. It currently does not support in-line text editing. Any text you place in here will be lost. If you need to comment on your tab, please use the "Tab Notes" section located below.