Sound will begin in 5 seconds

Gypsy Jazz Phrase #65 - Some stuff

01234567891011121314151617181920212223
E
B
G
D
A
E
B
0 1 2 3 4 5 6 7 8 9 10 11 12 13 14 15 16 17 18 19 20 21 22 23
Song Science #1: How Pros Use 6 Chords to Write Hit Songs
(/) Slide Up  (\) Slide Down  (h) Hammer On  (p) Pull Off  (b) Bend (r) Release (v) Vibrato

Stave 1:

E|-------------------------------10--14---------------------------------10--14--
B|------------------------9--12---------------------------------10--13----------
G|--------------------11------------------------------------11------------------
D|-------------9--12--------------------------------10--12----------------------
A|------9--11--------------------------------9--12------------------------------
E|--10-----------------------------------10-------------------------------------

Stave 2:

E|-----------------------------7--7--4--------------------------
B|-----------------------6--9-----------6-----------------------
G|--------------------7--------------------7--4-----------------
D|-----------4--6--9-----------------------------6--4-----------
A|--------5--------------------------------------------5--------
E|--4--7--------------------------------------------------7--4--

http://www.guitartabcreator.com
Guitar Tab Creator is intended to store guitar tab created through the tool. It currently does not support in-line text editing. Any text you place in here will be lost. If you need to comment on your tab, please use the "Tab Notes" section located below.