Sound will begin in 5 seconds

Gypsy Jazz Phrase #61 - Over G, C#dim, Am, D7, G

01234567891011121314151617181920212223
E
B
G
D
A
E
B
0 1 2 3 4 5 6 7 8 9 10 11 12 13 14 15 16 17 18 19 20 21 22 23
Song Science #1: How Pros Use 6 Chords to Write Hit Songs
(/) Slide Up  (\) Slide Down  (h) Hammer On  (p) Pull Off  (b) Bend (r) Release (v) Vibrato

Stave 1:

E|----------------------------10--14--12--14--12--------------------------
B|------------------------12----------------------15--12------------------
G|----------------11--12----------------------------------13--------------
D|---------9--12----------------------------------------------14--13--12--
A|--9--10-----------------------------------------------------------------
E|------------------------------------------------------------------------

Stave 2:

E|--15--12-------------------------------------------------------------
B|----------13----------------------12--10-----------------------------
G|--------------14--13--12--10--11----------11-------------------------
D|----------------------------------------------12--11--10-------------
A|----------------------------------------------------------12--9--10--
E|---------------------------------------------------------------------

http://www.guitartabcreator.com
Guitar Tab Creator is intended to store guitar tab created through the tool. It currently does not support in-line text editing. Any text you place in here will be lost. If you need to comment on your tab, please use the "Tab Notes" section located below.