Sound will begin in 5 seconds

Gypsy Jazz Phrase #5 in Dm or A7

01234567891011121314151617181920212223
E
B
G
D
A
E
B
0 1 2 3 4 5 6 7 8 9 10 11 12 13 14 15 16 17 18 19 20 21 22 23
Song Science #1: How Pros Use 6 Chords to Write Hit Songs
(/) Slide Up  (\) Slide Down  (h) Hammer On  (p) Pull Off  (b) Bend (r) Release (v) Vibrato

Stave 1:

E|--15--14--13------------------------------9--6--------------------------------------------
B|--------------15--12----------------------------8--7--6-----------------------------------
G|----------------------14--13--12-------------------------9--6-----------------------------
D|----------------------------------15--12-----------------------9--8--7--------------------
A|------------------------------------------------------------------------9--8--7--4--------
E|------------------------------------------------------------------------------------6--5--

Stave 2:

E|--------------------------6--9--6--------------------------------------------
B|-----------------------8-----------8--7--6-----------------------------------
G|-----------------6--9-----------------------9--6-----------------------------
D|-----------5--8-----------------------------------9--7--8--------------------
A|-----4--7--------------------------------------------------9--7--8--4--------
E|--5--------------------------------------------------------------------6--5--

http://www.guitartabcreator.com
Guitar Tab Creator is intended to store guitar tab created through the tool. It currently does not support in-line text editing. Any text you place in here will be lost. If you need to comment on your tab, please use the "Tab Notes" section located below.