Sound will begin in 5 seconds

Gypsy Jazz Phrase #36 - All of Me Turnaround in C 8 bars

01234567891011121314151617181920212223
E
B
G
D
A
E
B
0 1 2 3 4 5 6 7 8 9 10 11 12 13 14 15 16 17 18 19 20 21 22 23
Song Science #1: How Pros Use 6 Chords to Write Hit Songs
(/) Slide Up  (\) Slide Down  (h) Hammer On  (p) Pull Off  (b) Bend (r) Release (v) Vibrato

Stave 1:

E|------------------------------8--12--10--12--10-------------------------7--10--7--------------------------
B|--------------------------10---------------------13--9---------------8------------8-----------------------
G|-------------------9--10--------------------------------10--7--8--9------------------9--------7-----------
D|------------7--10-----------------------------------------------------------------------8--9-----9--8--7--
A|--10--7--8------------------------------------------------------------------------------------------------
E|----------------------------------------------------------------------------------------------------------

Stave 2:

E|--8--7--8--9--10--11--8------------------------------------
B|-------------------------9------11--9--8------8---------9--
G|----------------------------10------------10-----9--10-----
D|-----------------------------------------------------------
A|-----------------------------------------------------------
E|-----------------------------------------------------------

Stave 3:

E|--8--7--8--9--10--11--8------------------------------------------------------------------------------------------------------
B|-------------------------9------11--9--8------8------------8--7-----------7--6-----------6--5-----------5--4-----------4--3--
G|----------------------------10------------10------------9--------------8--------------7--------------6--------------5--------
D|-------------------------------------------------9--10-----------8--9-----------7--8-----------6--7-----------5--6-----------
A|-----------------------------------------------------------------------------------------------------------------------------
E|-----------------------------------------------------------------------------------------------------------------------------

http://www.guitartabcreator.com
Guitar Tab Creator is intended to store guitar tab created through the tool. It currently does not support in-line text editing. Any text you place in here will be lost. If you need to comment on your tab, please use the "Tab Notes" section located below.