Sound will begin in 5 seconds

Gypsy Jazz Phrase #28 over Dm

01234567891011121314151617181920212223
E
B
G
D
A
E
B
0 1 2 3 4 5 6 7 8 9 10 11 12 13 14 15 16 17 18 19 20 21 22 23
Song Science #1: How Pros Use 6 Chords to Write Hit Songs
(/) Slide Up  (\) Slide Down  (h) Hammer On  (p) Pull Off  (b) Bend (r) Release (v) Vibrato

Stave 1:

E|--------------------3--------3--6--------6--9--------9--12----------12--12----------12--13----------13--
B|-----------------2--------2-----------5-----------8-------------11--------------11--------------11------
G|-----------0--3--------3-----------6-----------9------------12--------------12--------------12----------
D|--------2-----------------------------------------------------------------------------------------------
A|--0--4--------------------------------------------------------------------------------------------------
E|--------------------------------------------------------------------------------------------------------

Stave 2:

E|--12----------12--12----------12--12----------12--10----------10--10----------10--12----------12--13----------13--12----------12--
B|----------11--------------10--------------10--------------10--------------10--------------10--------------10--------------12------
G|------12--------------10--------------10--------------10--------------10--------------10--------------10--------------13----------
D|----------------------------------------------------------------------------------------------------------------------------------
A|----------------------------------------------------------------------------------------------------------------------------------
E|----------------------------------------------------------------------------------------------------------------------------------

Stave 3:

E|--13----------13--15----------15--13----------13--10----------10--12----------12--10----------10--
B|----------12--------------12--------------12--------------11--------------11--------------11------
G|------13--------------13--------------13--------------12--------------12--------------12----------
D|--------------------------------------------------------------------------------------------------
A|--------------------------------------------------------------------------------------------------
E|--------------------------------------------------------------------------------------------------

http://www.guitartabcreator.com
Guitar Tab Creator is intended to store guitar tab created through the tool. It currently does not support in-line text editing. Any text you place in here will be lost. If you need to comment on your tab, please use the "Tab Notes" section located below.