Sound will begin in 5 seconds

Gypsy Jazz Phrase #20 over E7

01234567891011121314151617181920212223
E
B
G
D
A
E
B
0 1 2 3 4 5 6 7 8 9 10 11 12 13 14 15 16 17 18 19 20 21 22 23
Song Science #1: How Pros Use 6 Chords to Write Hit Songs
(/) Slide Up  (\) Slide Down  (h) Hammer On  (p) Pull Off  (b) Bend (r) Release (v) Vibrato

Stave 1:

E|---------------------------------------------------7--10---------------7--10--15--13--12--
B|-----------8--6---------------------------------9---------9---------9---------------------
G|--------7--------7-----------------------7--10---------------7--10------------------------
D|-----6--------------8--6-----------6--9---------------------------------------------------
A|--7-----------------------8--6--7---------------------------------------------------------
E|------------------------------------------------------------------------------------------

Stave 2:

E|--------------------------8--7--6-----------------------------------------------------13--16--
B|--15--12---------------------------9--6-------------------------------------------15----------
G|----------13-----------------------------7--------------------------------13--16--------------
D|--------------14--13--12--------------------8--7--6---------------12--15----------------------
A|-----------------------------------------------------8--6--7--13------------------------------
E|----------------------------------------------------------------------------------------------

Stave 3:

E|--13--12--------------------------
B|----------15--12------------------
G|------------------13--------------
D|----------------------14--13--12--
A|----------------------------------
E|----------------------------------

http://www.guitartabcreator.com
Guitar Tab Creator is intended to store guitar tab created through the tool. It currently does not support in-line text editing. Any text you place in here will be lost. If you need to comment on your tab, please use the "Tab Notes" section located below.