Sound will begin in 5 seconds

Gypsy Jazz Phrase #19 over E7

01234567891011121314151617181920212223
E
B
G
D
A
E
B
0 1 2 3 4 5 6 7 8 9 10 11 12 13 14 15 16 17 18 19 20 21 22 23
Song Science #1: How Pros Use 6 Chords to Write Hit Songs
(/) Slide Up  (\) Slide Down  (h) Hammer On  (p) Pull Off  (b) Bend (r) Release (v) Vibrato

Stave 1:

E|--------------------------1--0-----------------------------------1--3--1--0--
B|--------------------0--3--------3--0-----------------------------------------
G|-----------------1--------------------2--1-----------------------------------
D|-----------0--3-----------------------------3--2--0--------------------------
A|--------2--------------------------------------------3--2--0-----------------
E|--0--4--------------------------------------------------------4--------------

Stave 2:

E|-----------------------------------------------------7--5--4--------------------------------
B|--3--1--0-----------------------------5--6--5--4--5-----------6--5--------------------------
G|-----------2--1-----------------------------------------------------7--5--4-----------------
D|-----------------3--2--0-----------------------------------------------------7--6-----------
A|--------------------------3--2--0--------------------------------------------------8--6--7--
E|-----------------------------------4--------------------------------------------------------

Stave 3:

E|-----------------7--6--5--4--------------------------------------
B|--5--6--5--4--5--------------6--5--------------------------------
G|-----------------------------------7--5--7--5--4-----------------
D|--------------------------------------------------7--6-----------
A|--------------------------------------------------------8--6--7--
E|-----------------------------------------------------------------

Stave 4:

E|---------------------------------7--10--8--7-----------------------------------------------
B|------------------------------9---------------10--9----------------------------------------
G|-----------------------7--10-------------------------10--9---------------------------------
D|-----------------6--9---------------------------------------12--10--9----------------------
A|--7--8--7--6--7--------------------------------------------------------12--11--------------
E|-------------------------------------------------------------------------------13--11--12--

Stave 5:

E|-----------------------------10--13--12--------------------------------------------------
B|-------------------------12--------------15--12------------------------------------------
G|-----------------10--13--------------------------13--------------------------------------
D|----------9--12--------------------------------------14--13--12--------------------------
A|------11---------------------------------------------------------14--12--11--------------
E|--12-------------------------------------------------------------------------13--11--12--

Stave 6:

E|------------------------------------------13--15--13--12------
B|----------------------------------12--15----------------------
G|------------------------------13------------------------------
D|----------------------12--15------------------------------14--
A|--------------11--14------------------------------------------
E|--10--11--12--------------------------------------------------

http://www.guitartabcreator.com
Guitar Tab Creator is intended to store guitar tab created through the tool. It currently does not support in-line text editing. Any text you place in here will be lost. If you need to comment on your tab, please use the "Tab Notes" section located below.