Sound will begin in 5 seconds

Gypsy Jazz Lick #79 - Over D in key of G

01234567891011121314151617181920212223
E
B
G
D
A
E
B
0 1 2 3 4 5 6 7 8 9 10 11 12 13 14 15 16 17 18 19 20 21 22 23
Song Science #1: How Pros Use 6 Chords to Write Hit Songs
(/) Slide Up  (\) Slide Down  (h) Hammer On  (p) Pull Off  (b) Bend (r) Release (v) Vibrato

Stave 1:

E|------------------------------------------10--12--14--12--10---------------------------------
B|--------------12--11--10--------------12----------------------10----------11-----------------
G|----------11--------------12--11--12------------------------------11----------12--9----------
D|------10--------------------------------------------------------------12-------------11--12--
A|--12-----------------------------------------------------------------------------------------
E|---------------------------------------------------------------------------------------------

Stave 2:

E|------------------11-------------------------10--14--12--14p12------------------------------
B|--------------10-------------------------12---------------------15--12----------------------
G|----------11---------------------10--12---------------------------------12------------------
D|------10------------------9--12---------------------------------------------14--12--11--12--
A|--11------------------10--------------------------------------------------------------------
E|--------------------------------------------------------------------------------------------

Stave 3:

E|------------10--8---------------------7--6--10--6---------------------------------------
B|-----7--10---------10--7-----------8---------------8--7--10--8--7--6--7-----------------
G|--7-----------------------7-----7----------------------------------------7-----------7--
D|-----------------------------9----------------------------------------------9--8--7-----
A|----------------------------------------------------------------------------------------
E|----------------------------------------------------------------------------------------

Stave 4:

E|--8--10--8--7--------------------6--10------------------
B|---------------8--------------8---------10--7-----------
G|------------------7--------7-------------------7-----7--
D|---------------------9--8-------------------------7-----
A|--------------------------------------------------------
E|--------------------------------------------------------

http://www.guitartabcreator.com
Guitar Tab Creator is intended to store guitar tab created through the tool. It currently does not support in-line text editing. Any text you place in here will be lost. If you need to comment on your tab, please use the "Tab Notes" section located below.