Sound will begin in 5 seconds

Gypsy Jazz #32 - Hora Lautaresca basic melody from Angelo Debarre album Entre Ciel Et Terre

01234567891011121314151617181920212223
E
B
G
D
A
E
B
0 1 2 3 4 5 6 7 8 9 10 11 12 13 14 15 16 17 18 19 20 21 22 23
Song Science #1: How Pros Use 6 Chords to Write Hit Songs
(/) Slide Up  (\) Slide Down  (h) Hammer On  (p) Pull Off  (b) Bend (r) Release (v) Vibrato

Stave 1:

E|--7--5--8--5--7--5--8--5--7--5--8--5--7-----5--4--7--4--5--4--7--4--5--4--7--4--5--
B|-----------------------------------------------------------------------------------
G|-----------------------------------------------------------------------------------
D|-----------------------------------------------------------------------------------
A|-----------------------------------------------------------------------------------
E|-----------------------------------------------------------------------------------

Stave 2:

E|------------------7--8--9--8--7-----------------------------------------------
B|--------7--8--10-----------------10--8--7------7--10--8--7-----------7--8--7--
G|-----9-------------------------------------10---------------9--8--9-----------
D|--9---------------------------------------------------------------------------
A|------------------------------------------------------------------------------
E|------------------------------------------------------------------------------

Stave 3:

E|--------------5-----------------------5--------------------------------------------
B|-----5--7--8-----8--7--------5--7--8-----8--7-----8--8--8--7--7-----8--8--8--7--7--
G|--8-----------------------8--------------------------------------------------------
D|-----------------------------------------------------------------------------------
A|-----------------------------------------------------------------------------------
E|-----------------------------------------------------------------------------------

Stave 4:

E|--------------5-----------------------5-----------------------------------------
B|-----5--7--8-----8--7--------5--7--8-----8--7-----8--8--8--7--7-----------------
G|--8-----------------------8-----------------------------------------5--5--5--4--
D|--------------------------------------------------------------------------------
A|--------------------------------------------------------------------------------
E|--------------------------------------------------------------------------------

http://www.guitartabcreator.com
Guitar Tab Creator is intended to store guitar tab created through the tool. It currently does not support in-line text editing. Any text you place in here will be lost. If you need to comment on your tab, please use the "Tab Notes" section located below.