Sound will begin in 5 seconds

song

01234567891011121314151617181920212223
E
B
G
D
A
E
B
0 1 2 3 4 5 6 7 8 9 10 11 12 13 14 15 16 17 18 19 20 21 22 23
Song Science #1: How Pros Use 6 Chords to Write Hit Songs
(/) Slide Up  (\) Slide Down  (h) Hammer On  (p) Pull Off  (b) Bend (r) Release (v) Vibrato

Stave 1:

G |--------------------------------4--5--4-----------|---------------------------------------9--10--9--
D |--------------6--7--6-----6--7-----------7--6--7--|--------------6--7--6-----6--7--9--10------------
A |--------7--8-----------7--------------------------|--------7--8-----------7-------------------------
E |--5--8--------------------------------------------|--5--8-------------------------------------------
B |--------------------------------------------------|-------------------------------------------------
Gb|--------------------------------------------------|-------------------------------------------------

Stave 2:

G |-------------4--7--4-----4--7--13--7--4-----------|-------------4--7--4-----4--7--13--7--4-----------
D |----------6-----------6------------------6--------|----------6-----------6------------------6--------
A |-------5------------------------------------5-----|-------5------------------------------------5-----
E |--0h7------------------------------------------7--|--0h7------------------------------------------7--
B |--------------------------------------------------|--------------------------------------------------
Gb|--------------------------------------------------|--------------------------------------------------

Stave 3:

G |--------------------------------4--5--4-----------|---------------------------------------9--10--9--
D |--------------6--7--6-----6--7-----------7--6--7--|--------------6--7--6-----6--7--9--10------------
A |--------7--8-----------7--------------------------|--------7--8-----------7-------------------------
E |--5--8--------------------------------------------|--5--8-------------------------------------------
B |--------------------------------------------------|-------------------------------------------------
Gb|--------------------------------------------------|-------------------------------------------------

Stave 4:

G |--------------
D |--------------
A |--------------
E |--------------
B |--0--0--0--0--
Gb|--------------

http://www.guitartabcreator.com
Guitar Tab Creator is intended to store guitar tab created through the tool. It currently does not support in-line text editing. Any text you place in here will be lost. If you need to comment on your tab, please use the "Tab Notes" section located below.