Sound will begin in 5 seconds

solo part 2

01234567891011121314151617181920212223
E
B
G
D
A
E
B
0 1 2 3 4 5 6 7 8 9 10 11 12 13 14 15 16 17 18 19 20 21 22 23
Song Science #1: How Pros Use 6 Chords to Write Hit Songs
(/) Slide Up  (\) Slide Down  (h) Hammer On  (p) Pull Off  (b) Bend (r) Release (v) Vibrato

Stave 1:

E|-------12-14-12----------------------------------------|--------------------------|---------------|-------
B|----14----------14-12-14-12----------------------------|--------------------------|---------------|-------
G|-13-------------------------13-11b13b11-9----9-11-9----|--------------------------|-----------6-9-|-11b12-
D|------------------------------------------11--------11-|-11-9----9----------------|-----6-9-9-----|-------
A|-------------------------------------------------------|------11---11-9-7-9b9-7---|-7-9-----------|-------
E|-------------------------------------------------------|------------------------9-|---------------|-------

Stave 2:

E|----------------------------|-----7-9-9-------12-14-12----------------------------------------------------
B|----------------------------|-7-9----------14-------------------------------------------------------------
G|-11-9----9-11-11b12b11-9----|-----------13-------------11b12b11-9----9-11-11b12b11-9----9-11-9------------
D|------11-----------------11-|-------------------------------------11-----------------11--------11-11-9----
A|----------------------------|--------------------------------------------------------------------------11-
E|----------------------------|-----------------------------------------------------------------------------

Stave 3:

E|-
B|-
G|-
D|-
A|-
E|-

http://www.guitartabcreator.com
Guitar Tab Creator is intended to store guitar tab created through the tool. It currently does not support in-line text editing. Any text you place in here will be lost. If you need to comment on your tab, please use the "Tab Notes" section located below.