Sound will begin in 5 seconds

I Want To Write You A Song

01234567891011121314151617181920212223
E
B
G
D
A
E
B
0 1 2 3 4 5 6 7 8 9 10 11 12 13 14 15 16 17 18 19 20 21 22 23
Song Science #1: How Pros Use 6 Chords to Write Hit Songs
(/) Slide Up  (\) Slide Down  (h) Hammer On  (p) Pull Off  (b) Bend (r) Release (v) Vibrato

Capo Fret 1

Stave 1:

E|----------------------------------------------------------
B|--10-----10-----10-----10-----10-----10-----10-----10-----
G|----------------------------------------------------------
D|----------------------------------------------------------
A|------8------8------8------8------8------8------8------8--
E|----------------------------------------------------------

Stave 2:

E|------------------------------10-----10-----10-----10-----
B|--10-----10-----10-----10---------------------------------
G|----------------------------------------------------------
D|----------------------------------------------------------
A|------8------8------8------8------8------8------8------8--
E|----------------------------------------------------------

Stave 3:

E|-----------------------8-----10-----10-----10-----10-----
B|--10-----10-----11---------------------------------------
G|---------------------------------------------------------
D|---------------------------------------------------------
A|------8------8------8-----8------8------8------8------8--
E|---------------------------------------------------------

Stave 4:

E|------------------------------10-----10-----10-----10-----
B|--10-----10-----10-----10---------------------------------
G|----------------------------------------------------------
D|----------------------------------------------------------
A|------8------8------8------8------8------8------8------8--
E|----------------------------------------------------------

Stave 5:

E|-----------------------8-----10-----10-----10-----10-----
B|--10-----10-----11---------------------------------------
G|---------------------------------------------------------
D|---------------------------------------------------------
A|------8------8------8-----8------8------8------8------8--
E|---------------------------------------------------------

Stave 6:

E|--10-----10-----8-----8--------------------------------
B|----------------------------11-----11-----10-----8-----
G|-------------------------------------------------------
D|-------------------------------------------------------
A|------8------8-----8-----8------8------8------8-----8--
E|-------------------------------------------------------

Stave 7:

E|----------------------------------------------------------------------------------
B|----------------------------------------------------------------------------------
G|--10-----10-----10-----10-----7-----7-----9-----9-----10-----10-----10-----10-----
D|----------------------------------------------------------------------------------
A|------8------8------8------8-----8-----8-----8-----8------8------8------8------8--
E|----------------------------------------------------------------------------------

Stave 8:

E|-----
B|-----
G|-----
D|-----
A|-----
E|--6--

http://www.guitartabcreator.com
Guitar Tab Creator is intended to store guitar tab created through the tool. It currently does not support in-line text editing. Any text you place in here will be lost. If you need to comment on your tab, please use the "Tab Notes" section located below.