Split Open and Melt

01234567891011121314151617181920212223
E
B
G
D
A
E
B
0 1 2 3 4 5 6 7 8 9 10 11 12 13 14 15 16 17 18 19 20 21 22 23
(/) Slide Up  (\) Slide Down  (h) Hammer On  (p) Pull Off  (b) Bend (r) Release (v) Vibrato

Stave 1:

G|-------------------------------14--12----------------------------------------------------------------------------------0--------------
D|-----------14--14--14--14--------------14--12----------------------------------------------12--10-------------------------4-----------
A|--5--6--7------------------12------------------14--12--12------------------------------------------11--12--12----------------3--5--7--
E|-----------------------------------------------------------15--15--13--13--11--11--10--10----------------------10--12-----------------
B|--------------------------------------------------------------------------------------------------------------------------------------

Stave 2:

G|-----------------------------------------
D|-----------------------------------------
A|--3--5--7--------------4--4--6--6--7-----
E|-----------6--5--7--7--------------------
B|-----------------------------------------

Stave 3:

G|-----------------------
D|-----6--7--------------
A|--4--------0--2--3--4--
E|-----------------------
B|-----------------------

Stave 4:

G|-----------------------------------------------------------------------------------------------------
D|--8--8--8--8--8--8--8--8--8--8--8--8--8--8--10--11-------------7--9-----------------------7--10--10--
A|----------------------------------------------------10--7--10--------------------6--7--8-------------
E|------------------------------------------------------------------------4--6--8----------------------
B|---------------------------------------------------------------------6-------------------------------

Stave 5:

G|----------------------------------------------------------------------------
D|-----------------------------------------------8--9--10--11-----------------
A|--4--6--7--------------6--7--8--9----------------------------6--7--8--9-----
E|-----------3--5--6--7--------------5--7--8--9-------------------------------
B|-------------------------------------------------------------------------7--

Stave 6:

G|---------------------------------------------------------------------------------------------------------------
D|--------------------7--6---------------------------------------------------14--13--12--------------------------
A|-----------7--6--5--------5-----9--8--7------------12--11--10--------------------------16--15--14--13--12--11--
E|--------7--------------------------------11--9--8--------------14--13--12--------------------------------------
B|--6--7-----------------------7---------------------------------------------------------------------------------

Stave 7:

G|--------------
D|-----------6--
A|--------------
E|-----8--7-----
B|--7-----------

Stave 8:

G|----------------------------------------------------------------------
D|-----4--5--6--7--8--9--6--5--7--8--9--10--11--9--8--7--6--5--4--3--2--
A|--4-------------------------------------------------------------------
E|----------------------------------------------------------------------
B|----------------------------------------------------------------------

Stave 9:

G|--------------------------------
D|--3--4--5--5--3--2--1--2--1-----
A|-----------------------------4--
E|--------------------------------
B|--------------------------------

Stave 10:

G|--11--11--11--11-----------0--1--------6----------------------------------------------------------------
D|------------------------------------------6--8--------10--10--10--10--9--8----------11--12--12------12--
A|------------------9--8--7--------3--4-----------6--8------------------------10--11--------------11------
E|--------------------------------------------------------------------------------------------------------
B|--------------------------------------------------------------------------------------------------------

Stave 11:

G|--15--14--13--12--11-----------------------------7-----------7-----7--7--7--7--7-----------
D|----------------------14--13--11--9--8-----6--5--------6--5--------------------------7--6--
A|----------------------------------------5-----------5-----------5-----------------5--------
E|-------------------------------------------------------------------------------------------
B|-------------------------------------------------------------------------------------------

Stave 12:

G|--------------------4--4--4--4--------------------------------------------------
D|-----0--1--2--3-----------------------0--2--3--5--6--7--8--8--8--8--8--8--7--6--
A|--4--------------2--------------2--4--------------------------------------------
E|--------------------------------------------------------------------------------
B|--------------------------------------------------------------------------------

Stave 13:

G|--10-----------------------------------------------------------------------10--11---------
D|------9--10---------10--12----------14--14--14--14--14--14--13--12--10-------------10--0--
A|----------------------------10--12--------------------------------------8-----------------
E|-------------9--10------------------------------------------------------------------------
B|------------------------------------------------------------------------------------------

Stave 14:

G|-----------------------------------
D|--12--11--10--9--8--7--6--5--4-----
A|--------------------------------5--
E|-----------------------------------
B|-----------------------------------

Stave 15:

G|--------------------------
D|-----------------4--------
A|--4-----3--2--1--------3--
E|-----2--------------2-----
B|--------------------------

Stave 16:

G|----------------------------------------------7--6--8--9--10--11----------------
D|--8-----5--6--8--9--10--11--5--6--------7--6----------------------8--9--10--11--
A|-----7----------------------------5--6------------------------------------------
E|--------------------------------------------------------------------------------
B|--------------------------------------------------------------------------------

Stave 17:

G|--12--11---------------------------10--11--9----------------------------9-------------
D|----------10--9--------------8--9-------------12--10--9--11--12--10--9-----12--11--9--
A|-----------------9--6--8--9-----------------------------------------------------------
E|--------------------------------------------------------------------------------------
B|--------------------------------------------------------------------------------------

Stave 18:

G|--13--11--10------------------------------10--11--13--
D|--------------13--11--10------10--11--13--------------
A|--------------------------11--------------------------
E|------------------------------------------------------
B|------------------------------------------------------

Stave 19:

G|--------4--6-----------------------------------------------------------------
D|-----6-----------------------------------6--------6-----------4-----------6--
A|--4-----------4--6--7--8--6--------4--6--------4-----4-----4-----4-----6-----
E|-----------------------------6--4-----------4-----------2-----------4--------
B|-----------------------------------------------------------------------------

Stave 20:

G|--------4--6-----------------------------------------------------2-----------------
D|-----6-----------------------------------4--5--6-----------------------------------
A|--4-----------4--6--7--8--6--------4--6-----------4-----4-----4-----4--------------
E|-----------------------------6--4--------------------4-----2-----------4--4--4--4--
B|-----------------------------------------------------------------------------------

							http://www.guitartabcreator.com
Chords

Instruments
{"strings":[[[".",".",".",".",".",".",".",".",14,12,".",".",".",".",".",".",".",".",".",".",".",".",".",".",".",".",".",".",".",".",0,".",".",".","."],[".",".",".",14,14,14,14,".",".",".",14,12,".",".",".",".",".",".",".",".",".",".",".",12,10,".",".",".",".",".",".",4,".",".","."],[5,6,7,".",".",".",".",12,".",".",".",".",14,12,12,".",".",".",".",".",".",".",".",".",".",11,12,12,".",".",".",".",3,5,7],[".",".",".",".",".",".",".",".",".",".",".",".",".",".",".",15,15,13,13,11,11,10,10,".",".",".",".",".",10,12,".",".",".",".","."],[".",".",".",".",".",".",".",".",".",".",".",".",".",".",".",".",".",".",".",".",".",".",".",".",".",".",".",".",".",".",".",".",".",".","."]],[[".",".",".",".",".",".",".",".",".",".",".",".","_"],[".",".",".",".",".",".",".",".",".",".",".",".","_"],[3,5,7,".",".",".",".",4,4,6,6,7,"_"],[".",".",".",6,5,7,7,".",".",".",".",".","_"],[".",".",".",".",".",".",".",".",".",".",".",".","_"]],[[".",".",".",".",".",".","."],[".",6,7,".",".",".","."],[4,".",".",0,2,3,4],[".",".",".",".",".",".","."],[".",".",".",".",".",".","."]],[[".",".",".",".",".",".",".",".",".",".",".",".",".",".",".",".",".",".",".",".",".",".",".",".",".",".",".",".",".",".","."],[8,8,8,8,8,8,8,8,8,8,8,8,8,8,10,11,".",".",".",7,9,".",".",".",".",".",".",".",7,10,10],[".",".",".",".",".",".",".",".",".",".",".",".",".",".",".",".",10,7,10,".",".",".",".",".",".",6,7,8,".",".","."],[".",".",".",".",".",".",".",".",".",".",".",".",".",".",".",".",".",".",".",".",".",".",4,6,8,".",".",".",".",".","."],[".",".",".",".",".",".",".",".",".",".",".",".",".",".",".",".",".",".",".",".",".",6,".",".",".",".",".",".",".",".","."]],[[".",".",".",".",".",".",".",".",".",".",".",".",".",".",".",".",".",".",".",".",".",".",".","."],[".",".",".",".",".",".",".",".",".",".",".",".",".",".",".",8,9,10,11,".",".",".",".","."],[4,6,7,".",".",".",".",6,7,8,9,".",".",".",".",".",".",".",".",6,7,8,9,"."],[".",".",".",3,5,6,7,".",".",".",".",5,7,8,9,".",".",".",".",".",".",".",".","."],[".",".",".",".",".",".",".",".",".",".",".",".",".",".",".",".",".",".",".",".",".",".",".",7]],[[".",".",".",".",".",".",".",".",".",".",".",".",".",".",".",".",".",".",".",".",".",".",".",".",".",".",".",".",".",".","."],[".",".",".",".",".",".",7,6,".",".",".",".",".",".",".",".",".",".",".",".",".",".",14,13,12,".",".",".",".",".","."],[".",".",".",7,6,5,".",".",5,".",9,8,7,".",".",".",12,11,10,".",".",".",".",".",".",16,15,14,13,12,11],[".",".",7,".",".",".",".",".",".",".",".",".",".",11,9,8,".",".",".",14,13,12,".",".",".",".",".",".",".",".","."],[6,7,".",".",".",".",".",".",".",7,".",".",".",".",".",".",".",".",".",".",".",".",".",".",".",".",".",".",".",".","."]],[[".",".",".","."],[".",".",".",6],[".",".",".","."],[".",8,7,"."],[7,".",".","."]],[[".",".",".",".",".",".",".",".",".",".",".",".",".",".",".",".",".",".",".",".",".","."],[".",4,5,6,7,8,9,6,5,7,8,9,10,11,9,8,7,6,5,4,3,2],[4,".",".",".",".",".",".",".",".",".",".",".",".",".",".",".",".",".",".",".",".","."],[".",".",".",".",".",".",".",".",".",".",".",".",".",".",".",".",".",".",".",".",".","."],[".",".",".",".",".",".",".",".",".",".",".",".",".",".",".",".",".",".",".",".",".","."]],[[".",".",".",".",".",".",".",".",".","."],[3,4,5,5,3,2,1,2,1,"."],[".",".",".",".",".",".",".",".",".",4],[".",".",".",".",".",".",".",".",".","."],[".",".",".",".",".",".",".",".",".","."]],[[11,11,11,11,".",".",".",0,1,".",".",6,".",".",".",".",".",".",".",".",".",".",".",".",".",".",".",".","."],[".",".",".",".",".",".",".",".",".",".",".",".",6,8,".",".",10,10,10,10,9,8,".",".",11,12,12,".",12],[".",".",".",".",9,8,7,".",".",3,4,".",".",".",6,8,".",".",".",".",".",".",10,11,".",".",".",11,"."],[".",".",".",".",".",".",".",".",".",".",".",".",".",".",".",".",".",".",".",".",".",".",".",".",".",".",".",".","."],[".",".",".",".",".",".",".",".",".",".",".",".",".",".",".",".",".",".",".",".",".",".",".",".",".",".",".",".","."]],[[15,14,13,12,11,".",".",".",".",".",".",".",".",7,".",".",".",7,".",7,7,7,7,7,".",".","."],[".",".",".",".",".",14,13,11,9,8,".",6,5,".",".",6,5,".",".",".",".",".",".",".",".",7,6],[".",".",".",".",".",".",".",".",".",".",5,".",".",".",5,".",".",".",5,".",".",".",".",".",5,".","."],[".",".",".",".",".",".",".",".",".",".",".",".",".",".",".",".",".",".",".",".",".",".",".",".",".",".","."],[".",".",".",".",".",".",".",".",".",".",".",".",".",".",".",".",".",".",".",".",".",".",".",".",".",".","."]],[[".",".",".",".",".",".",4,4,4,4,".",".",".",".",".",".",".",".",".",".",".",".",".",".",".","."],[".",0,1,2,3,".",".",".",".",".",".",".",0,2,3,5,6,7,8,8,8,8,8,8,7,6],[4,".",".",".",".",2,".",".",".",".",2,4,".",".",".",".",".",".",".",".",".",".",".",".",".","."],[".",".",".",".",".",".",".",".",".",".",".",".",".",".",".",".",".",".",".",".",".",".",".",".",".","."],[".",".",".",".",".",".",".",".",".",".",".",".",".",".",".",".",".",".",".",".",".",".",".",".",".","."]],[[10,".",".",".",".",".",".",".",".",".",".",".",".",".",".",".",".",".",".",10,11,".","."],[".",9,10,".",".",10,12,".",".",14,14,14,14,14,14,13,12,10,".",".",".",10,0],[".",".",".",".",".",".",".",10,12,".",".",".",".",".",".",".",".",".",8,".",".",".","."],[".",".",".",9,10,".",".",".",".",".",".",".",".",".",".",".",".",".",".",".",".",".","."],[".",".",".",".",".",".",".",".",".",".",".",".",".",".",".",".",".",".",".",".",".",".","."]],[[".",".",".",".",".",".",".",".",".","."],[12,11,10,9,8,7,6,5,4,"."],[".",".",".",".",".",".",".",".",".",5],[".",".",".",".",".",".",".",".",".","."],[".",".",".",".",".",".",".",".",".","."]],[[".",".",".",".",".",".",".","."],[".",".",".",".",".",4,".","."],[4,".",3,2,1,".",".",3],[".",2,".",".",".",".",2,"."],[".",".",".",".",".",".",".","."]],[[".",".",".",".",".",".",".",".",".",".",".",".",".",".",7,6,8,9,10,11,".",".",".","."],[8,".",5,6,8,9,10,11,5,6,".",".",7,6,".",".",".",".",".",".",8,9,10,11],[".",7,".",".",".",".",".",".",".",".",5,6,".",".",".",".",".",".",".",".",".",".",".","."],[".",".",".",".",".",".",".",".",".",".",".",".",".",".",".",".",".",".",".",".",".",".",".","."],[".",".",".",".",".",".",".",".",".",".",".",".",".",".",".",".",".",".",".",".",".",".",".","."]],[[12,11,".",".",".",".",".",".",".",".",10,11,9,".",".",".",".",".",".",".",9,".",".","."],[".",".",10,9,".",".",".",".",8,9,".",".",".",12,10,9,11,12,10,9,".",12,11,9],[".",".",".",".",9,6,8,9,".",".",".",".",".",".",".",".",".",".",".",".",".",".",".","."],[".",".",".",".",".",".",".",".",".",".",".",".",".",".",".",".",".",".",".",".",".",".",".","."],[".",".",".",".",".",".",".",".",".",".",".",".",".",".",".",".",".",".",".",".",".",".",".","."]],[[13,11,10,".",".",".",".",".",".",".",10,11,13],[".",".",".",13,11,10,".",10,11,13,".",".","."],[".",".",".",".",".",".",11,".",".",".",".",".","."],[".",".",".",".",".",".",".",".",".",".",".",".","."],[".",".",".",".",".",".",".",".",".",".",".",".","."]],[[".",".",4,6,".",".",".",".",".",".",".",".",".",".",".",".",".",".",".",".",".",".",".",".","."],[".",6,".",".",".",".",".",".",".",".",".",".",".",6,".",".",6,".",".",".",4,".",".",".",6],[4,".",".",".",4,6,7,8,6,".",".",4,6,".",".",4,".",4,".",4,".",4,".",6,"."],[".",".",".",".",".",".",".",".",".",6,4,".",".",".",4,".",".",".",2,".",".",".",4,".","."],[".",".",".",".",".",".",".",".",".",".",".",".",".",".",".",".",".",".",".",".",".",".",".",".","."]],[[".",".",4,6,".",".",".",".",".",".",".",".",".",".",".",".",".",".",".",".",".",2,".",".",".",".","."],[".",6,".",".",".",".",".",".",".",".",".",".",".",4,5,6,".",".",".",".",".",".",".",".",".",".","."],[4,".",".",".",4,6,7,8,6,".",".",4,6,".",".",".",4,".",4,".",4,".",4,".",".",".","."],[".",".",".",".",".",".",".",".",".",6,4,".",".",".",".",".",".",4,".",2,".",".",".",4,4,4,4],[".",".",".",".",".",".",".",".",".",".",".",".",".",".",".",".",".",".",".",".",".",".",".",".",".",".","."]]],"numberofstrings":5,"notes":["G","D","A","E","B"],"capo":0,"stringnotes":["G2","D2","A1","E1","B0"],"comments":["Stave 1:","Stave 2:","Stave 3:","Stave 4:","Stave 5:","Stave 6:","Stave 7:","Stave 8:","Stave 9:","Stave 10:","Stave 11:","Stave 12:","Stave 13:","Stave 14:","Stave 15:","Stave 16:","Stave 17:","Stave 18:","Stave 19:","Stave 20:"],"timing":[[null,null,null,null,null,null,null,null,null,null,null,null,null,null,null,null,null,null,null,null,null,null,null,null,null,null,null,null,null,null,null,null,null,null,null],[null,null,null,null,null,null,null,null,null,null,null,null,null],["W","W","W","W","W","W","W"],["W","W","W","W","W","W","W","W","W","W","W","W","W","W","W","W","W","W","W","W","W","W","W","W","W","W","W","W","W","W","W"],["W","W","W","W","W","W","W","W","W","W","W","W","W","W","W","W","W","W","W","W","W","W","W","W"],["W","W","W","W","W","W","W","W","W","W","W","W","W","W","W","W","W","W","W","W","W","W","W","W","W","W","W","W","W","W","W"],["W","W","W","W"],["W","W","W","W","W","W","W","W","W","W","W","W","W","W","W","W","W","W","W","W","W","W"],["W","W","W","W","W","W","W","W","W","W"],["W","W","W","W","W","W","W","W","W","W","W","W","W","W","W","W","W","W","W","W","W","W","W","W","W","W","W","W","W"],["W","W","W","W","W","W","W","W","W","W","W","W","W","W","W","W","W","W","W","W","W","W","W","W","W","W","W"],["W","W","W","W","W","W","W","W","W","W","W","W","W","W","W","W","W","W","W","W","W","W","W","W","W","W"],["W","W","W","W","W","W","W","W","W","W","W","W","W","W","W","W","W","W","W","W","W","W","W"],["W","W","W","W","W","W","W","W","W","W"],["W","W","W","W","W","W","W","W"],["W","W","W","W","W","W","W","W","W","W","W","W","W","W","W","W","W","W","W","W","W","W","W","W"],["W","W","W","W","W","W","W","W","W","W","W","W","W","W","W","W","W","W","W","W","W","W","W","W"],["W","W","W","W","W","W","W","W","W","W","W","W","W"],["W","W","W","W","W","W","W","W","W","W","W","W","W","W","W","W","W","W","W","W","W","W","W","W","W"],["W","W","W","W","W","W","W","W","W","W","W","W","W","W","W","W","W","W","W","W","W","W","W","W","W","W","W"]],"timingvisible":false,"tabcounter":27,"stave":19,"totalstaves":20,"instrument":"5bass","selectedtuning":"5bass","version":"13"}

Member for

1 month 3 weeks
Submitted by dierythmus on Tue, 2021-11-30 13:56