Sound will begin in 5 seconds

Right here waiting for you

01234567891011121314151617181920212223
E
B
G
D
A
E
B
0 1 2 3 4 5 6 7 8 9 10 11 12 13 14 15 16 17 18 19 20 21 22 23
(/) Slide Up  (\) Slide Down  (h) Hammer On  (p) Pull Off  (b) Bend (r) Release (v) Vibrato

Solo

E|---------------------------------------------------------------------------------------8--------------
B|---------------------------------------------------------------------------5--8/10--8-----------------
G|--------------------5--7--7-----5--7/12--12/14---------5h7-----5--------5-----------------------------
D|--------------5--7------------------------------10----------7--------7--------------------------------
A|--5--7--7---------------------------------------------------------------------------------------------
E|------------------------------------------------------------------------------------------------------

Stave 2:

E|-----8-----10-----8-----10-----8--------7-----8-----7-----8-----7--------8-----10-----8-----10-----8--
B|--8-----8------8-----8------8-----8--------8-----8-----8-----8-----8--------8------8-----8------8-----
G|------------------------------------------------------------------------------------------------------
D|------------------------------------------------------------------------------------------------------
A|------------------------------------------------------------------------------------------------------
E|------------------------------------------------------------------------------------------------------

Stave 3:

E|--10/12--12-----12h13p12---------------------------
B|--------------------------13---------12h13p12------
G|------------------------------12h14------------14--
D|---------------------------------------------------
A|---------------------------------------------------
E|---------------------------------------------------

http://www.guitartabcreator.com
Guitar Tab Creator is intended to store guitar tab created through the tool. It currently does not support in-line text editing. Any text you place in here will be lost. If you need to comment on your tab, please use the "Tab Notes" section located below.