Iron Maiden - Wasting Love solo

Chords

01234567891011121314151617181920212223
E
B
G
D
A
E
B
0 1 2 3 4 5 6 7 8 9 10 11 12 13 14 15 16 17 18 19 20 21 22 23
(/) Slide Up  (\) Slide Down  (h) Hammer On  (p) Pull Off  (b) Bend (r) Release (v) Vibrato

Stave 1:

E|-------------------------|-------------------------------
B|--14-14--12------12--12--|-------------------------------
G|--14b14--12------12--12--|--7b9--7--5--4--5--4-----------
D|-------------14----------|----------------------7--5--7--
A|-------------------------|-------------------------------
E|-------------------------|-------------------------------

Stave 2:

E|------15------14------12-----------------------------|------12------14------15------14------15------17--15--17b19--
B|--12------12------12------12--15--15b17--15--13--12--|--12------12------12------12------12------12-----------------
G|-----------------------------------------------------|-------------------------------------------------------------
D|-----------------------------------------------------|-------------------------------------------------------------
A|-----------------------------------------------------|-------------------------------------------------------------
E|-----------------------------------------------------|-------------------------------------------------------------

Stave 3:

E|--17b19--17--15--14--15--|--17b19--17--15--14------|--17b19--17--15--14--15--14-------------
B|-------------------------|---------------------15--|-----------------------------15b17--15--
G|-------------------------|-------------------------|----------------------------------------
D|-------------------------|-------------------------|----------------------------------------
A|-------------------------|-------------------------|----------------------------------------
E|-------------------------|-------------------------|----------------------------------------

Stave 4:

E|------15--14--------------------------------------|------12------14------15------17--15--17b19--17--
B|--12----------15--13--12--13--12------------------|--12------12------12------12---------------------
G|----------------------------------14--12--11--12--|-------------------------------------------------
D|--------------------------------------------------|-------------------------------------------------
A|--------------------------------------------------|-------------------------------------------------
E|--------------------------------------------------|-------------------------------------------------

							http://www.guitartabcreator.com
Instruments
{"strings":[[[".",".",".",".",".",".",".","|",".",".",".",".",".",".",".",".",".",".","."],[14,".",14,12,".",12,12,"|",".",".",".",".",".",".",".",".",".",".","."],[14,"b",14,12,".",12,12,"|",7,"b",9,7,5,4,5,4,".",".","."],[".",".",".",".",14,".",".","|",".",".",".",".",".",".",".",".",7,5,7],[".",".",".",".",".",".",".","|",".",".",".",".",".",".",".",".",".",".","."],[".",".",".",".",".",".",".","|",".",".",".",".",".",".",".",".",".",".","."]],[[".",15,".",14,".",12,".",".",".",".",".",".",".",".","|",".",12,".",14,".",15,".",14,".",15,".",17,15,17,"b",19],[12,".",12,".",12,".",12,15,15,"b",17,15,13,12,"|",12,".",12,".",12,".",12,".",12,".",12,".",".",".",".","."],[".",".",".",".",".",".",".",".",".",".",".",".",".",".","|",".",".",".",".",".",".",".",".",".",".",".",".",".",".",".","."],[".",".",".",".",".",".",".",".",".",".",".",".",".",".","|",".",".",".",".",".",".",".",".",".",".",".",".",".",".",".","."],[".",".",".",".",".",".",".",".",".",".",".",".",".",".","|",".",".",".",".",".",".",".",".",".",".",".",".",".",".",".","."],[".",".",".",".",".",".",".",".",".",".",".",".",".",".","|",".",".",".",".",".",".",".",".",".",".",".",".",".",".",".","."]],[[17,"b",19,17,15,14,15,"|",17,"b",19,17,15,14,".","|",17,"b",19,17,15,14,15,14,".",".",".","."],[".",".",".",".",".",".",".","|",".",".",".",".",".",".",15,"|",".",".",".",".",".",".",".",".",15,"b",17,15],[".",".",".",".",".",".",".","|",".",".",".",".",".",".",".","|",".",".",".",".",".",".",".",".",".",".",".","."],[".",".",".",".",".",".",".","|",".",".",".",".",".",".",".","|",".",".",".",".",".",".",".",".",".",".",".","."],[".",".",".",".",".",".",".","|",".",".",".",".",".",".",".","|",".",".",".",".",".",".",".",".",".",".",".","."],[".",".",".",".",".",".",".","|",".",".",".",".",".",".",".","|",".",".",".",".",".",".",".",".",".",".",".","."]],[[".",15,14,".",".",".",".",".",".",".",".",".","|",".",12,".",14,".",15,".",17,15,17,"b",19,17],[12,".",".",15,13,12,13,12,".",".",".",".","|",12,".",12,".",12,".",12,".",".",".",".",".","."],[".",".",".",".",".",".",".",".",14,12,11,12,"|",".",".",".",".",".",".",".",".",".",".",".",".","."],[".",".",".",".",".",".",".",".",".",".",".",".","|",".",".",".",".",".",".",".",".",".",".",".",".","."],[".",".",".",".",".",".",".",".",".",".",".",".","|",".",".",".",".",".",".",".",".",".",".",".",".","."],[".",".",".",".",".",".",".",".",".",".",".",".","|",".",".",".",".",".",".",".",".",".",".",".",".","."]]],"numberofstrings":6,"notes":["E","B","G","D","A","E","B"],"capo":0,"stringnotes":["E4","B3","G3","D3","A2","E2"],"comments":["Stave 1:","Stave 2:","Stave 3:","Stave 4:"],"timing":[["W",null,"W","W","W","W","W",null,"W",null,"W","W","W","W","W","W","W","W","W"],["W","W","W","W","W","W","W","W","W",null,"W","W","W","W",null,"W","W","W","W","W","W","W","W","W","W","W","W","W","W",null,"W"],["W",null,"W","W","W","W","W",null,"W",null,"W","W","W","W","W",null,"W",null,"W","W","W","W","W","W","W",null,"W","W"],["W","W","W","W","W","W","W","W","W","W","W","W",null,"W","W","W","W","W","W","W","W","W","W",null,"W","W"]],"timingvisible":false,"tabcounter":26,"stave":3,"totalstaves":4,"instrument":"6guitar","selectedtuning":"6_standard","version":"13"}

Member for

1 year 10 months
Submitted by Diego Rotta on Thu, 2020-10-15 20:03