Sound will begin in 5 seconds

yggyyg

01234567891011121314151617181920212223
E
B
G
D
A
E
B
0 1 2 3 4 5 6 7 8 9 10 11 12 13 14 15 16 17 18 19 20 21 22 23
Song Science #1: How Pros Use 6 Chords to Write Hit Songs
(/) Slide Up  (\) Slide Down  (h) Hammer On  (p) Pull Off  (b) Bend (r) Release (v) Vibrato

Stave 1:

E|--5--3--2--3--5--7--5--3--------------------------------------------------
B|--------------------------7--5--3--5--7--8--7--5--------------------------
G|--------------------------------------------------7--5--4--5--7--9--7--5--
D|--------------------------------------------------------------------------
A|--------------------------------------------------------------------------
E|--------------------------------------------------------------------------
B|--------------------------------------------------------------------------

Stave 2:

E|----------------------------------------------------------8--7--5--7--8--10--8--7--
B|------------------------------10--8--7--8--10--12--10--8---------------------------
G|--11--9--7--9--11--12--11--9-------------------------------------------------------
D|-----------------------------------------------------------------------------------
A|-----------------------------------------------------------------------------------
E|-----------------------------------------------------------------------------------
B|-----------------------------------------------------------------------------------

Stave 3:

E|--12--10--8--10--12--14--12--10------------------------------------------------------------------
B|---------------------------------13--12--10--12--13--15--13--12----------------------------------
G|-----------------------------------------------------------------14--12--11--12--14--16--14--12--
D|-------------------------------------------------------------------------------------------------
A|-------------------------------------------------------------------------------------------------
E|-------------------------------------------------------------------------------------------------
B|-------------------------------------------------------------------------------------------------

Stave 4:

E|------------------------------------------------------------------15--14--12--14--15--17--15--14/
B|----------------------------------17--15--13--15--17--19--17--15---------------------------------
G|--17--16--14--16--17--19--17--16-----------------------------------------------------------------
D|-------------------------------------------------------------------------------------------------
A|-------------------------------------------------------------------------------------------------
E|-------------------------------------------------------------------------------------------------
B|-------------------------------------------------------------------------------------------------

Stave 5:

E|--17v--
B|-------
G|-------
D|-------
A|-------
E|-------
B|-------

http://www.guitartabcreator.com
Guitar Tab Creator is intended to store guitar tab created through the tool. It currently does not support in-line text editing. Any text you place in here will be lost. If you need to comment on your tab, please use the "Tab Notes" section located below.