Sound will begin in 5 seconds

Dance of the Sugar Plum Fairy

01234567891011121314151617181920212223
E
B
G
D
A
E
B
0 1 2 3 4 5 6 7 8 9 10 11 12 13 14 15 16 17 18 19 20 21 22 23
Song Science #1: How Pros Use 6 Chords to Write Hit Songs
(/) Slide Up  (\) Slide Down  (h) Hammer On  (p) Pull Off  (b) Bend (r) Release (v) Vibrato

Stave 1:

E|--------------|---------0----|---------1----|--------------|--------------|---------0----
B|---------3----|--------------|--------------|---------2----|---------3----|--------------
G|--------------|--------------|--------------|--------------|--------------|--------------
D|----0---------|----0---------|----0---------|----0---------|----0---------|----0---------
A|--------------|--------------|--------------|--------------|--------------|--------------
E|--------------|--------------|--------------|--------------|--------------|--------------

Stave 2:

E|---------1----|--------------|---------1---------|----1----0----|--------------|-------------------
B|--------------|---------2----|--------------3----|--------------|----2----3----|----1----1----1----
G|--------------|--------------|-------------------|--------------|--------------|-------------------
D|----0---------|----0---------|----0--------------|--------------|--------------|-------------------
A|--------------|--------------|-------------------|--------------|--------------|-------------------
E|--------------|--------------|-------------------|--------------|--------------|-------------------

Stave 3:

E|-------------------|-------------------|------------------------|-------------------
B|----0----0----0----|-------------------|---------3---------3----|-------------------
G|-------------------|----3----3----3----|----2---------3---------|----2----3----2----
D|-------------------|-------------------|------------------------|-------------------
A|-------------------|-------------------|------------------------|-------------------
E|-------------------|-------------------|------------------------|-------------------

Stave 4:

E|---------1---------|----1----0----|----6----5----|----13----13----13----|----12----12----12----
B|--------------3----|--------------|--------------|----------------------|----------------------
G|----1--------------|--------------|--------------|----------------------|----------------------
D|-------------------|--------------|--------------|----------------------|----------------------
A|-------------------|--------------|--------------|----------------------|----------------------
E|-------------------|--------------|--------------|----------------------|----------------------

Stave 5:

E|----10----10----10----|----9----12----10----12----|----9---------|---------1---------
B|----------------------|---------------------------|--------------|--------------3----
G|----------------------|---------------------------|--------------|-------------------
D|----------------------|---------------------------|---------7----|----0--------------
A|----------------------|---------------------------|--------------|-------------------
E|----------------------|---------------------------|--------------|-------------------

Stave 6:

E|----1----0----|--------------|-------------------|-------------------|-------------------
B|--------------|----2----3----|----1----1----1----|----0----0----0----|-------------------
G|--------------|--------------|-------------------|-------------------|----3----3----3----
D|--------------|--------------|-------------------|-------------------|-------------------
A|--------------|--------------|-------------------|-------------------|-------------------
E|--------------|--------------|-------------------|-------------------|-------------------

Stave 7:

E|------------------------|-------------------|---------10----------|----10----9----
B|---------3---------3----|---------3----1----|----0----------12----|---------------
G|----2---------3---------|----2--------------|---------------------|---------------
D|------------------------|-------------------|---------------------|---------------
A|------------------------|-------------------|---------------------|---------------
E|------------------------|-------------------|---------------------|---------------

Stave 8:

E|---------8----------|----8----7----|---------6---------|----6----5----|---------5----|----10----
B|--------------10----|--------------|--------------8----|--------------|--------------|----------
G|--------------------|--------------|-------------------|--------------|----2---------|----------
D|----7---------------|--------------|----5--------------|--------------|--------------|----------
A|--------------------|--------------|-------------------|--------------|--------------|----------
E|--------------------|--------------|-------------------|--------------|--------------|----------

http://www.guitartabcreator.com
Guitar Tab Creator is intended to store guitar tab created through the tool. It currently does not support in-line text editing. Any text you place in here will be lost. If you need to comment on your tab, please use the "Tab Notes" section located below.