Just the Two of Us by Bill Withers (UKULELE TABS)

01234567891011121314151617181920212223
E
B
G
D
A
E
B
0 1 2 3 4 5 6 7 8 9 10 11 12 13 14 15 16 17 18 19 20 21 22 23
(/) Slide Up  (\) Slide Down  (h) Hammer On  (p) Pull Off  (b) Bend (r) Release (v) Vibrato

Stave 1:

A|-----------------------------2-----4--2-----------------------------------------
E|--0--0--0--------0--2--4--------4--------4--2--2--0-----0--4--2--2--0--4--2-----
A|-----------3--3--------------------------------------------------------------1--
G|--------------------------------------------------------------------------------

Stave 2:

A|-----------------------------2-----4--2--------------------------------------------
E|--0--0--0--------0--2--4--------4--------4--2--2--0-----0--4--2--0--2--0--4--2-----
A|-----------3--3-----------------------------------------------------------------1--
G|-----------------------------------------------------------------------------------

Stave 3:

A|--------------------2-----2-----2--2--4--2--------------------------------------
E|--4--0--2--0--0--------4-----4-----------------4--0--2--0--0-----2--0--2--0-----
A|-----------------------------------------------------------------------------1--
G|--------------------------------------------------------------------------------

Stave 4:

A|-----------------2-----2-----2--2--4--2-----------------------------
E|--4--0--2--0--0-----4-----4--------------4--0--2--0--0-----4--2-----
A|-----------------------------------------------------------------1--
G|--------------------------------------------------------------------

							http://www.guitartabcreator.com
Chords

Tab Notes
4 Staves, Verse 1 and Chorus only, VERSE 1 is Stave 1 &2, CHORUS is Stave 3 & 4
Instruments
{"strings":[[[".",".",".",".",".",".",".",".","_",2,".",4,2,".",".",".",".","_","_","_","_",".",".",".",".","."],[0,0,0,".",".",0,2,4,"_",".",4,".",".",4,2,2,0,"_",0,4,2,2,0,4,2,"."],[".",".",".",3,3,".",".",".","_",".",".",".",".",".",".",".",".","_","_","_","_",".",".",".",".",1],[".",".",".",".",".",".",".",".","_",".",".",".",".",".",".",".",".","_","_","_","_",".",".",".",".","."]],[[".",".",".",".",".",".",".",".","_",2,".",4,2,".",".",".",".","_",".",".",".",".",".",".",".",".","."],[0,0,0,".",".",0,2,4,"_",".",4,".",".",4,2,2,0,"_",0,4,2,0,2,0,4,2,"."],[".",".",".",3,3,".",".",".","_",".",".",".",".",".",".",".",".","_",".",".",".",".",".",".",".",".",1],[".",".",".",".",".",".",".",".","_",".",".",".",".",".",".",".",".","_",".",".",".",".",".",".",".",".","."]],[[".",".",".",".",".","_",2,".",2,".",2,2,4,2,"_",".",".",".",".",".","_",".",".",".",".","."],[4,0,2,0,0,"_",".",4,".",4,".",".",".",".","_",4,0,2,0,0,"_",2,0,2,0,"."],[".",".",".",".",".","_",".",".",".",".",".",".",".",".","_",".",".",".",".",".","_",".",".",".",".",1],[".",".",".",".",".","_",".",".",".",".",".",".",".",".","_",".",".",".",".",".","_",".",".",".",".","."]],[[".",".",".",".",".",2,".",2,".",2,2,4,2,".",".",".",".",".","_",".",".","."],[4,0,2,0,0,".",4,".",4,".",".",".",".",4,0,2,0,0,"_",4,2,"."],[".",".",".",".",".",".",".",".",".",".",".",".",".",".",".",".",".",".","_",".",".",1],[".",".",".",".",".",".",".",".",".",".",".",".",".",".",".",".",".",".","_",".",".","."]]],"numberofstrings":4,"notes":["A","E","A","G"],"capo":0,"stringnotes":["A4","E4","C4","G3"],"comments":["Stave 1:","Stave 2:","Stave 3:","Stave 4:"],"timing":[["W","W","W","W","W","W","W","W","W","W","W","W","W","W","W","W","W","W","W","W","W","W","W","W","W","W"],["W","W","W","W","W","W","W","W","W","W","W","W","W","W","W","W","W","W","W","W","W","W","W","W","W","W","W"],["W","W","W","W","W","W","W","W","W","W","W","W","W","W","W","W","W","W","W","W","W","W","W","W","W","W"],["W","W","W","W","W","W","W","W","W","W","W","W","W","W","W","W","W","W","W","W","W","W"]],"timingvisible":false,"tabcounter":22,"stave":3,"totalstaves":4,"instrument":"ukulele","selectedtuning":"ukulele","version":"13"}
Submitted by diamondzieman on Fri, 2022-07-29 01:50