Sound will begin in 5 seconds

Stairway solo

Chords
01234567891011121314151617181920212223
E
B
G
D
A
E
B
0 1 2 3 4 5 6 7 8 9 10 11 12 13 14 15 16 17 18 19 20 21 22 23
Song Science #1: How Pros Use 6 Chords to Write Hit Songs
(/) Slide Up  (\) Slide Down  (h) Hammer On  (p) Pull Off  (b) Bend (r) Release (v) Vibrato

(W|WW) Whole (H|HH) Half (Q|QQ) Quarter (E|EE) 8th (S|SS) 16th (T|TT) 32nd (X|XX) 64th

Stave 1:
t: H E E S S S H S S S S S S S S S S E E E E
E|--3--2--------------|--0--5--3--------------------|-----------------5--8--8--|--
B|--------3--0--------|-----------5--3--------3--1--|--------------------------|--
G|--------------2--0--|-----------------5--2--------|--2--0--------------------|--
D|--------------------|-----------------------------|--------3-----------------|--
A|--------------------|-----------------------------|--------------------------|--
E|--------------------|-----------------------------|--------------------------|--

Stave 2:
t: QQ E EE SS EE E SS S SS S SS S EE Q S S S S
E|--10--8--------------8--10--|--8--------------------0--5--3--------|--
B|---------10------10---------|-----10--8------8--10-----------5--3--|--
G|-------------10-------------|------------10------------------------|--
D|----------------------------|--------------------------------------|--
A|----------------------------|--------------------------------------|--
E|----------------------------|--------------------------------------|--

Stave 3:
t: S S S S S S S S E S S E E E S S S S S S S S S S S S W
E|-----------------------------------------|-----5--3-----------------------------------
B|--------3--1-----------------1-----1--1--|-----------5--3--------3--1-----------------
G|--5--2--------2--0-----0--2-----2--------|--0--------------5--2--------2--0--2--0-----
D|--------------------2--------------------|-----------------------------------------3--
A|-----------------------------------------|--------------------------------------------
E|-----------------------------------------|--------------------------------------------

Stave 4:
t: E S S S S S S E S S S SS S EE SS SS SS SS SS SS EE SS SS SS SS SS SS
E|--------1--------------0--3--0---------8--|--12--10------10----------15--17--15--13--12--10----------|--
B|-----1-----3--1-----1-----------8--10-----|----------12------12--12--------------------------13--10--|--
G|--2--------------2------------------------|----------------------------------------------------------|--
D|------------------------------------------|----------------------------------------------------------|--
A|------------------------------------------|----------------------------------------------------------|--
E|------------------------------------------|----------------------------------------------------------|--

Stave 5:
t: TT TT TT TT TT TT TT TT TT TT TT TT TT HH EE SS SS SS SS SS SS
E|------10--12--10----------|------10--12--10--------------17--|--17--12--15--12--------------
B|--13--------------13--10--|--13--------------13------13------|------------------15--13------
G|--------------------------|----------------------10----------|--------------------------14--
D|--------------------------|----------------------------------|------------------------------
A|--------------------------|----------------------------------|------------------------------
E|--------------------------|----------------------------------|------------------------------

Stave 6:
t: EE SS SS SS SS SS SS SS SS SS SS SS SS SS SS SS SS SS S S S S
E|--17--12--15--12--------------------------------------13--15--|-----------------5--0-----0--0--
B|------------------15--13------13--15--13------13--15----------|--15--13---------5--0-----1--1--
G|--------------------------14--------------14------------------|----------14-----5--0-----0--2--
D|--------------------------------------------------------------|-----------------7--2-----2--3--
A|--------------------------------------------------------------|-----------------7--2-----3--3--
E|--------------------------------------------------------------|-----------------5--0--------1--

Stave 7:
t: EE EE EE EE EE EE EE EE EE EE EE EE EE E E EE E EE E EE
E|---------15--17--15--12--10----------10--------------|--12--------|--8--8----------------|------
B|-----15----------------------13--10------13--10--13--|------------|--------10--8--10--8--|--10--
G|-----------------------------------------------------|------------|----------------------|------
D|-----------------------------------------------------|------------|----------------------|------
A|-----------------------------------------------------|------------|----------------------|------
E|-----------------------------------------------------|------------|----------------------|------

Stave 8:
t: E E E E E E E E E E E E E E S S S S S S S S S S S S S
E|-----0-----5-----------------------|-----0-----------------|--------8--5--0--8--5--0--8--5--0--8--5--0--
B|--------------6--5--4--3--1--3--1--|--3-----3--1-----------|-----5--------------------------------------
G|-----------------------------------|--------------1--------|--------------------------------------------
D|-----------------------------------|-----------------------|--------------------------------------------
A|-----------------------------------|-----------------------|--------------------------------------------
E|-----------------------------------|-----------------------|--------------------------------------------

Stave 9:
t: S S S S S S SS
E|--8--5--0--8--5--0--10--
B|------------------------
G|------------------------
D|------------------------
A|------------------------
E|------------------------

http://www.guitartabcreator.com
Guitar Tab Creator is intended to store guitar tab created through the tool. It currently does not support in-line text editing. Any text you place in here will be lost. If you need to comment on your tab, please use the "Tab Notes" section located below.