Sound will begin in 5 seconds

This Town

Chords
01234567891011121314151617181920212223
E
B
G
D
A
E
B
0 1 2 3 4 5 6 7 8 9 10 11 12 13 14 15 16 17 18 19 20 21 22 23
(/) Slide Up  (\) Slide Down  (h) Hammer On  (p) Pull Off  (b) Bend (r) Release (v) Vibrato

Capo Fret 2

Stave 1 (Verse, part 1):

E|-----------------------------------------------------------------
B|-----------0-----------------------0-----------------------1-----
G|-----------0-----------------------0-----------------------0-----
D|-----------------------------------------------------------------
A|-----------------------------------------------------3-----------
E|-----3-----------------------0-----------------------------------

Stave 2 (Verse, part 2):

E|-----------------------------------------------------------------------------------2-----
B|-----------0-----------------------0-----------------------1-----------------------3-----
G|-----------0-----------------------0-----------------------0-----------------------------
D|-----------------------------------------------------------------------------0-----------
A|-----------------------------------------------------3-----------------------------------
E|-----3-----------------------0-----------------------------------------------------------

Stave 3 (Pre-Chorus, part 1):

E|-----------------------------------2-----------------------------------------------------------------------------------
B|-----------1-----------------------3-----------------------0-----------------------0-----------------------0-----------
G|-----------2-----------------------------------------------0-----------------------0-----------------------0-----------
D|-----------------------------0-----------------------------------------------------------------------------------------
A|-----0-----------------------------------------------------------------------------------------------------------------
E|-----------------------------------------------------3-----------------------2-----------------------0-----------------

Stave 4 (Pre-Chorus, part 2):

E|-----------------------------------2-----------------------------------------------------------------------------------------------------
B|-----------1-----------------------3-----------------------0-----------------------0-----------------------0-----------------------1-----
G|-----------2-----------------------------------------------0-----------------------0-----------------------0-----------------------0-----
D|-----------------------------0-----------------------------------------------------------------------------------------------------------
A|-----0-----------------------------------------------------------------------------------------------------------------------3-----------
E|-----------------------------------------------------3-----------------------2-----------------------0-----------------------------------

Stave 5 (Chorus):

E|-----------------------------------------------------------------------------------------------------------2-----------------------------------------------------
B|-----------0-----------------------0-----------------------0-----------------------0-----------------------3-----------------------0-----------------------1-----
G|-----------0-----------------------0-----------------------0-----------------------0-----------------------------------------------0-----------------------0-----
D|-----------------------------------------------------------------------------------------------------0-----------------------------------------------------------
A|-----------------------------3-----------------------------------------------------------------------------------------------------------------------3-----------
E|-----0-----------------------------------------------3-----------------------0-----------------------------------------------3-----------------------------------

Stave 6 (Post-Chorus):

E|-----------------------------------2-----------------------------------------------
B|-----------0-----------------------3-----------------0-----------------------0-----
G|-----------0-----------------------------------------0-----------------------0-----
D|-----------------------------------------------------0-----------------------------
A|-----------------------------------------------------------------------------------
E|-----0-----------------------0-----------------------------------------3-----------

Stave 7 (Bridge):

E|-----------------------------------------------------------------------------------------
B|-----------0-----------------------0-----------------------0-----------------------0-----
G|-----------0-----------------------0-----------------------0-----------------------0-----
D|-----------------------------------------------------------------------------------------
A|-----------------------------------------------------------------------------3-----------
E|-----0-----------------------2-----------------------3-----------------------------------

							http://www.guitartabcreator.com
Note:

Verse, part 1 = G Em C (everything 8x)
Verse, part 2 = G Em C D (everything 8x)
Pre-Chorus, part 1 = Am D G D/F# Em (4x, 4x, 2x, 2x, 4x)
Pre-Chorus, part 2 = Am D G D/F# Em C (4x, 4x, 2x, 2x, 4x, 8x)
Chorus = Em C G (everything 8x) Em D G C (2x, 2x, 2x, 4x)
Post-Chorus = Em D Em G (1x, 1x, 1x, 8x)
Bridge = Em D/F# G C (4x, 4x, 4x, 8x)

Guitar Tab Creator is intended to store guitar tab created through the tool. It currently does not support in-line text editing. Any text you place in here will be lost. If you need to comment on your tab, please use the "Tab Notes" section located below.