LANG GANG

Chords

01234567891011121314151617181920212223
E
B
G
D
A
E
B
0 1 2 3 4 5 6 7 8 9 10 11 12 13 14 15 16 17 18 19 20 21 22 23
(/) Slide Up  (\) Slide Down  (h) Hammer On  (p) Pull Off  (b) Bend (r) Release (v) Vibrato

VERSE (X4)

G|-------------------------------------------------------
D|-------------------------------------------------------
A|--7--7--7--7--7--7--7--7--5--5--5--10--10--10--10--10--
E|-------------------------------------------------------

CHORUS (X3)

G|-----------------------------------------------------
D|-----------------------------------------------------
A|--------------------------10--10--10-----------------
E|--5--5--5--5--5--5--5--5--------------8--8--8--8--8--

(AND THE BLOOD DRAIN KILLED HIS VIBE)

G|-------------------------------
D|-------------------------------
A|--9--9--9--10--10--10--10--10--
E|-------------------------------

INSTRUMENTAL RIFF

G|--------------7-----------------------------------
D|-----------------5-----------5--7--------5--5--5--
A|--7--7--7--7--------7--7--7--------5--5-----------
E|--------------------------------------------------

							http://www.guitartabcreator.com
Instruments
{"strings":[[[".",".",".",".",".",".",".",".",".",".",".",".",".",".",".","."],[".",".",".",".",".",".",".",".",".",".",".",".",".",".",".","."],[7,7,7,7,7,7,7,7,5,5,5,10,10,10,10,10],[".",".",".",".",".",".",".",".",".",".",".",".",".",".",".","."]],[[".",".",".",".",".",".",".",".",".",".",".",".",".",".",".","."],[".",".",".",".",".",".",".",".",".",".",".",".",".",".",".","."],[".",".",".",".",".",".",".",".",10,10,10,".",".",".",".","."],[5,5,5,5,5,5,5,5,".",".",".",8,8,8,8,8]],[[".",".",".",".",".",".",".","."],[".",".",".",".",".",".",".","."],[9,9,9,10,10,10,10,10],[".",".",".",".",".",".",".","."]],[[".",".",".",".",7,".",".",".",".",".",".",".",".",".",".","."],[".",".",".",".",".",5,".",".",".",5,7,".",".",5,5,5],[7,7,7,7,".",".",7,7,7,".",".",5,5,".",".","."],[".",".",".",".",".",".",".",".",".",".",".",".",".",".",".","."]]],"numberofstrings":4,"notes":["G","D","A","E"],"capo":0,"stringnotes":["G2","D2","A1","E1"],"comments":["VERSE (X4)","CHORUS (X3)","(AND THE BLOOD DRAIN KILLED HIS VIBE)","INSTRUMENTAL RIFF"],"timing":[[null,null,null,null,null,null,null,null,null,null,null,null,null,null,null,null],[null,null,null,null,null,null,null,null,null,null,null,null,null,null,null,null,null],[null,null,null,null,null,null,null,null],[null,null,null,null,null,null,null,null,null,null,null,null,null,null,null,null]],"timingvisible":false,"tabcounter":16,"stave":3,"totalstaves":4,"instrument":"4bass","selectedtuning":"4bass","version":"13"}

Member for

1 year 6 months
Submitted by dhanwright on Sun, 2020-10-25 18:21