Sound will begin in 5 seconds

Broken Vessels Amazing Grace(key of E)

Chords
01234567891011121314151617181920212223
E
B
G
D
A
E
B
0 1 2 3 4 5 6 7 8 9 10 11 12 13 14 15 16 17 18 19 20 21 22 23
Song Science #1: How Pros Use 6 Chords to Write Hit Songs
(/) Slide Up  (\) Slide Down  (h) Hammer On  (p) Pull Off  (b) Bend (r) Release (v) Vibrato

Stave 1:

E|-----------------------------------------------------
B|--5--------------------------------------------------
G|--6--4--------1--------1--4--1--1--------1--------1--
D|--6-----7--6--2--2--4-----------2--2--4-----4--2--2--
A|--4-----------------------------4-----------------2--
E|-----------------------------------------------------

Stave 2:

E|-----------------------------------------------------
B|--5--------------------------------------------------
G|--6--4--------1--------1--4--1--1--------1--------1--
D|--6-----7--6--2--2--4-----------2--2--4-----4--2--2--
A|--4-----------------------------4-----------------2--
E|-----------------------------------------------------

Stave 3:

E|---------
B|--5------
G|--6--0---
D|--6------
A|--4--10--
E|-----11--

Stave 4:

E|-----------
B|--4--5--4--
G|--4--6--4--
D|--4--6--4--
A|--2--4--2--
E|-----------

Stave 5:

E|---------------
B|---------------
G|--6--8--9---6--
D|--7--9--11--7--
A|--7--9--11--7--
E|--5--7--9---5--

Stave 6:

E|--------------
B|--9--7--9--5--
G|--9--8--9--6--
D|--9--9--9--7--
A|--7--9--7--7--
E|--0-----------

Stave 7:

E|--------------------------------------------------------------------------------
B|------------------9-------------------------9-------------------------9---------
G|--9-----9-----11-----11--9--9-----9-----11-----11--9--9-----9-----11-----11--9--
D|-----9-----9-------------------9-----9-------------------9-----9----------------
A|--------------------------------------------------------------------------------
E|--------------------------------------------------------------------------------

Stave 8:

E|------------------------------
B|--10--9------10-----9---------
G|---------11------9-----11--9--
D|------------------------------
A|------------------------------
E|------------------------------

Stave 9:

E|-----------5--4--------5--
B|--5--4--5--5--5--4--5--5--
G|--4--4--6-----4--4--6--6--
D|--2--2--6-----6--4--6--7--
A|-----2--4--4--------4-----
E|-----------5--------------

Stave 10:

E|-----------5--4----------5--------5--------5-----
B|--5--4--5--5--5--4--5/5-----5--------5--------5--
G|--4--4--6-----4--4--6----------6--------6--------
D|--2--2--6-----6--4--6----------------------------
A|-----2--4--4--------4----------------------------
E|-----------5-------------------------------------

Stave 11:

E|-----
B|--9--
G|--9--
D|--9--
A|--7--
E|-----

http://www.guitartabcreator.com
Guitar Tab Creator is intended to store guitar tab created through the tool. It currently does not support in-line text editing. Any text you place in here will be lost. If you need to comment on your tab, please use the "Tab Notes" section located below.