Jazz de coeur

Chords

01234567891011121314151617181920212223
E
B
G
D
A
E
B
0 1 2 3 4 5 6 7 8 9 10 11 12 13 14 15 16 17 18 19 20 21 22 23
(/) Slide Up  (\) Slide Down  (h) Hammer On  (p) Pull Off  (b) Bend (r) Release (v) Vibrato

Stave 1

E|--0--3--0--------------------------------|--0--3--0----------------------------|--0--3--0--------------------------------|--
B|-----------3--------0--------------------|-----------3--------0-----2--------0r|-----------3--------0--------------------|--
G|--------------0--3-----0--2--0--3--2--0--|--------------0--3-----0-----0-----2-|--------------0--3-----0--2--0--3--2--0--|--
D|-----------------------------------------|-------------------------------------|-----------------------------------------|--
A|--------------------0-----------3--------|--------------------0-----------2----|--------------------0-----------3--------|--
E|--0--------3-----------------------------|--0--------3-------------------------|--0--------3-----------------------------|--

Stave 1: x2

E|-----------------------------------------0--|--
B|-----------------------------------------0--|--
G|--------0-----------0--------------------0--|--
D|-----2-----2-----2-----2-----2-----1--------|--
A|--------------4-----------3-----2-----------|--
E|--0-----------------------------------0-----|--

Stave 3:

E|--3-----2--0--2--3--2--2-----------------------------------0--0--------0-----------------------------------------------------|--
B|--1-----1--1--1--------------------0--------0-----------0--------------1-----3--1-----1-----0--------0-----------------0-----|--
G|--------------------------------0--------0-----------1-----------------------0--0-----2-----2--2-----0--------------2--------|--
D|-----2--2-----0--------0--------------------------------------------------2--2-----0-----------0-----0-----------1-----------|--
A|--------------------------0-----------------------------------2--1--0--------------------0--0-----------0--1--2--------------|--
E|-----------------------------3--------2--------1--0-----------------------------------------------3-----------------------2--|--

Stave 4:

E|--------------------------------------2--3--|--
B|--------0-----------0-----------------2--3--|--
G|-----3-----3-----3--------3-----2-----0--0--|--
D|--------------------------------------------|--
A|--------------4--------3-----2--------------|--
E|--0--------------------------------0--------|--

							http://www.guitartabcreator.com
Tab Notes
stave 3 comincia con A 0
Instruments
{"strings":[[[0,3,0,".",".",".",".",".",".",".",".",".",".","|",0,3,0,".",".",".",".",".",".",".",".",".",".","|",0,3,0,".",".",".",".",".",".",".",".",".",".","|"],[".",".",".",3,".",".",0,".",".",".",".",".",".","|",".",".",".",3,".",".",0,".",2,".",".",0,"r","|",".",".",".",3,".",".",0,".",".",".",".",".",".","|"],[".",".",".",".",0,3,".",0,2,0,3,2,0,"|",".",".",".",".",0,3,".",0,".",0,".",2,".","|",".",".",".",".",0,3,".",0,2,0,3,2,0,"|"],[".",".",".",".",".",".",".",".",".",".",".",".",".","|",".",".",".",".",".",".",".",".",".",".",".",".",".","|",".",".",".",".",".",".",".",".",".",".",".",".",".","|"],[".",".",".",".",".",".",0,".",".",".",3,".",".","|",".",".",".",".",".",".",0,".",".",".",2,".",".","|",".",".",".",".",".",".",0,".",".",".",3,".",".","|"],[0,".",".",3,".",".",".",".",".",".",".",".",".","|",0,".",".",3,".",".",".",".",".",".",".",".",".","|",0,".",".",3,".",".",".",".",".",".",".",".",".","|"]],[[".",".",".",".",".",".",".",".",".",".",".",".",".",0,"|"],[".",".",".",".",".",".",".",".",".",".",".",".",".",0,"|"],[".",".",0,".",".",".",0,".",".",".",".",".",".",0,"|"],[".",2,".",2,".",2,".",2,".",2,".",1,".",".","|"],[".",".",".",".",4,".",".",".",3,".",2,".",".",".","|"],[0,".",".",".",".",".",".",".",".",".",".",".",0,".","|"]],[[3,".",2,0,2,3,2,2,".",".",".",".",".",".",".",".",".",".",".",0,0,".",".",0,".",".",".",".",".",".",".",".",".",".",".",".",".",".",".",".",".","|"],[1,".",1,1,1,".",".",".",".",".",".",0,".",".",0,".",".",".",0,".",".",".",".",1,".",3,1,".",1,".",0,".",".",0,".",".",".",".",".",0,".","|"],[".",".",".",".",".",".",".",".",".",".",0,".",".",0,".",".",".",1,".",".",".",".",".",".",".",0,0,".",2,".",2,2,".",0,".",".",".",".",2,".",".","|"],[".",2,2,".",0,".",".",0,".",".",".",".",".",".",".",".",".",".",".",".",".",".",".",".",2,2,".",0,".",".",".",0,".",0,".",".",".",1,".",".",".","|"],[".",".",".",".",".",".",".",".",0,".",".",".",".",".",".",".",".",".",".",".",2,1,0,".",".",".",".",".",".",0,0,".",".",".",0,1,2,".",".",".",".","|"],[".",".",".",".",".",".",".",".",".",3,".",".",2,".",".",1,0,".",".",".",".",".",".",".",".",".",".",".",".",".",".",".",3,".",".",".",".",".",".",".",2,"|"]],[[".",".",".",".",".",".",".",".",".",".",".",".",2,3,"|"],[".",".",0,".",".",".",0,".",".",".",".",".",2,3,"|"],[".",3,".",3,".",3,".",".",3,".",2,".",0,0,"|"],[".",".",".",".",".",".",".",".",".",".",".",".",".",".","|"],[".",".",".",".",4,".",".",3,".",2,".",".",".",".","|"],[0,".",".",".",".",".",".",".",".",".",".",0,".",".","|"]]],"numberofstrings":6,"notes":["E","B","G","D","A","E","B"],"capo":0,"stringnotes":["E4","B3","G3","D3","A2","E2"],"comments":["Stave 1","Stave 1: x2","Stave 3:","Stave 4:"],"timing":[["W","W","W","W","W","W","W","W","W","W","W","W","W",null,"W","W","W","W","W","W","W","W","W","W","W","W",null,null,"W","W","W","W","W","W","W","W","W","W","W","W","W"],["W","W","W","W","W","W","W","W","W","W","W","W","W","W","W","W","W","W","W","W","W","W","W","W","W","W","W","W","W","W"],["W","W","W","W","W","W","W","W","W","W","W","W","W","W","W","W","W","W","W","W","W","W","W","W","W","W","W","W","W","W","W","W","W","W","W","W","W","W","W","W","W"],["W","W","W","W","W","W","W","W","W","W","W","W","W","W","W","W"]],"timingvisible":false,"tabcounter":15,"stave":3,"totalstaves":4,"instrument":"6guitar","selectedtuning":"6_standard","version":"13"}

Member for

1 week 6 days
Submitted by dev1336 on Fri, 2020-07-31 13:49