Sound will begin in 5 seconds

Blue moon

Chords
01234567891011121314151617181920212223
E
B
G
D
A
E
B
0 1 2 3 4 5 6 7 8 9 10 11 12 13 14 15 16 17 18 19 20 21 22 23
Song Science #1: How Pros Use 6 Chords to Write Hit Songs
(/) Slide Up  (\) Slide Down  (h) Hammer On  (p) Pull Off  (b) Bend (r) Release (v) Vibrato

(W|WW) Whole (H|HH) Half (Q|QQ) Quarter (E|EE) 8th (S|SS) 16th (T|TT) 32nd (X|XX) 64th

Stave 1:
t: W W W W W W W W W W W W W W W W W W W W WW WW WW WW WW WW WW WW WW WW
E|------------------------------------------------------------------------------------------------------
B|------------------------------------------------------------------------------------------------------
G|--9--9--9--9--9--9--9--9--9--9------------------------------------------------------------------------
D|--9--9--9--9--9--9--9--9--9--9--9--9--9--9--9--9--9--9--9--9--11--11--11--11--11--11--11--11--11--11--
A|--7--7--7--7--7--7--7--7--7--7--9--9--9--9--9--9--9--9--9--9--11--11--11--11--11--11--11--11--11--11--
E|--------------------------------7--7--7--7--7--7--7--7--7--7--9---9---9---9---9---9---9---9---9---9---

Stave 2:
t: W H H H H H H H H H H H H H H H H H H H H H H H H H H H H H
E|--------------------------------------------------------------------------------------------
B|--------------------------------------------------------------------------------------------
G|--------------------------------9--9--9--9--9-----------------9--9--9--9--9-----------------
D|--9--9--9--9--9--9--9--9--9--9--9--9--9--9--9--9--9--9--9--9--9--9--9--9--9--9--9--9--9--9--
A|--9--9--9--9--9--9--9--9--9--9--7--7--7--7--7--9--9--9--9--9--7--7--7--7--7--9--9--9--9--9--
E|--7--7--7--7--7--7--7--7--7--7-----------------7--7--7--7--7-----------------7--7--7--7--7--

Stave 3:
t: HH HH HH HH HH HH HH HH HH HH
E|------------------------------------------
B|------------------------------------------
G|------------------------------------------
D|--11--11--11--11--11--11--11--11--11--11--
A|--11--11--11--11--11--11--11--11--11--11--
E|--9---9---9---9---9---9---9---9---9---9---

http://www.guitartabcreator.com
Guitar Tab Creator is intended to store guitar tab created through the tool. It currently does not support in-line text editing. Any text you place in here will be lost. If you need to comment on your tab, please use the "Tab Notes" section located below.