Sound will begin in 5 seconds

Every Breath

Chords
01234567891011121314151617181920212223
E
B
G
D
A
E
B
0 1 2 3 4 5 6 7 8 9 10 11 12 13 14 15 16 17 18 19 20 21 22 23
Song Science #1: How Pros Use 6 Chords to Write Hit Songs
(/) Slide Up  (\) Slide Down  (h) Hammer On  (p) Pull Off  (b) Bend (r) Release (v) Vibrato

Stave 1:

E|-----------------|-----------------------------|-----------------|-----------------------------|--
B|--0--1--0--------|--------------0--------------|--0--1--0--------|-----------------------------|--
G|-----------2--0--|--------2--------2-----2-----|-----------2--0--|--------------0--------------|--
D|-----------------|-----0-----0--------0--------|-----------------|--------4--------4-----4-----|--
A|-----------------|-----------------------------|-----------------|-----2-----2--------2--------|--
E|-----------------|--3-----------------------3--|-----------------|--0-----------------------0--|--

Stave 2:

E|-----------------|-----------------|-----------------|-----------------------------|-----------|--
B|--------0--1-----|--------1--0-----|-----------------|--------------0--------------|-----0--3--|--
G|--0--0--------0--|--0--0--------2--|--2--2--4--2--0--|--------2--------2-----2-----|--0--------|--
D|-----------------|--------------0--|-----------------|-----0-----0--------0--------|-----------|--
A|--------------3--|-----------------|-----------------|-----------------------------|-----------|--
E|-----------------|-----------------|-----------------|--3-----------------------3--|-----------|--

Stave 3:

E|--0--------------0-----------|--------0--0--------|-----------------------------|--3--0--3--0--|--
B|-----------1--------1-----1--|--------------3-----|--0-----------0--------------|--------------|--
G|--------0-----0--------0-----|-----0-----------0--|--------2--------2-----2-----|--------------|--
D|-----------------------------|--------------------|-----0-----0--------0--------|--------------|--
A|-----3-----------------------|--1-----------------|-----------------------------|--------------|--
E|-----------------------------|--------------------|--3-----------------------3--|--------------|--

Stave 4:

E|--3--0--------0--------------|--5--5--2--0--|-----------------0--------------|-----------------
B|--2-----2--------2-----2-----|--------------|--3--------3--------3-----3-----|-----8--8--8--6--
G|--2--------2--------2--------|--------------|--------2-----2--------2--------|-----8--8--8--8--
D|-----------------------------|--------------|-----0--------------------------|-----8--8--8--8--
A|--0-----------------------0--|--------------|-----------------------------0--|--6-----------6--
E|-----------------------------|--------------|--------------------------------|-----------------

Stave 5:

E|-----------------|--1-----1--1--1-----1--1--1--1--3--1--|--|--1-----1-----1-----|--
B|--6--6--6--8--6--|--------1--1--1-----1--1--1--1--------|--|-----1-----1-----1--|--
G|--8--8--8--------|--------2--2--2-----2--2--2--2--------|--|--------------------|--
D|--8--8--8--------|-----3--------------------------------|--|--3-----------------|--
A|-----------------|--------------------------------------|--|--------------------|--
E|-----------------|--------------------------------------|--|--------------------|--

Stave 6:

E|--3-----------------------------|--|--------------------------
B|-----------------0--------------|--|--------------------------
G|-----------2--------2-----2-----|--|--------------------------
D|--------0-----0--------0--------|--|--------------------------
A|--------------------------------|--|--------------------------
E|-----3-----------------------3--|--|--------------------------

http://www.guitartabcreator.com
Guitar Tab Creator is intended to store guitar tab created through the tool. It currently does not support in-line text editing. Any text you place in here will be lost. If you need to comment on your tab, please use the "Tab Notes" section located below.