Sound will begin in 5 seconds

The Swarm

Chords
01234567891011121314151617181920212223
E
B
G
D
A
E
B
0 1 2 3 4 5 6 7 8 9 10 11 12 13 14 15 16 17 18 19 20 21 22 23
Song Science #1: How Pros Use 6 Chords to Write Hit Songs
(/) Slide Up  (\) Slide Down  (h) Hammer On  (p) Pull Off  (b) Bend (r) Release (v) Vibrato

Stave 1:

E|-----------------------------------------|------------------------------------|--
B|----------------------------10------13v--|--------------------------------13--|--
G|---------10--12---------10------12-------|--12--12h14p12--10------10--12------|--
D|--10h12----------10h12-------------------|--------------------10--------------|--
A|-----------------------------------------|------------------------------------|--
E|-----------------------------------------|------------------------------------|--

Stave 2:

E|-----------------------|-------------------------------------------------------|------12------|--
B|--11v--10v--10\7-------|-------------------------------------------------------|--12------12--|--
G|-----------------------|-----------------9--7---------7------------------------|--------------|--
D|------------------7h9--|--10--10--9--10--------9v--9-----10--10--9--7--10--9v--|--------------|--
A|-----------------------|-------------------------------------------------------|--------------|--
E|-----------------------|-------------------------------------------------------|--------------|--

Stave 3:

E|------------------12-----------------------------12-------------|--17--20--22--20------17----------20/22--
B|--13--13--12--13------15--12--12--15--13--13h15------15--13p12--|------------------20------17--20---------
G|----------------------------------------------------------------|-----------------------------------------
D|----------------------------------------------------------------|-----------------------------------------
A|----------------------------------------------------------------|-----------------------------------------
E|----------------------------------------------------------------|-----------------------------------------

Stave 4:

E|------8--10--8----------------8------|-------------------------|---------------------|--12h13p12h13--12--
B|--10------------8--10-----8v-----10--|-------------------------|---------------------|-------------------
G|-----------------------9-------------|-------------------------|---------------------|-------------------
D|-------------------------------------|-------------------------|--14h15p14h15--------|-------------------
A|-------------------------------------|--/5-----3v--0-----------|---------------------|-------------------
E|-------------------------------------|----------------3--1--0--|---------------------|-------------------

Stave 5:

E|--12h13p12--12h13p12--12h13p12--12h13p12--|--12h13p12--13h15p13--15h17p15--17h19p17--12\|--
B|------------------------------------------|---------------------------------------------|--
G|------------------------------------------|---------------------------------------------|--
D|------------------------------------------|---------------------------------------------|--
A|------------------------------------------|---------------------------------------------|--
E|------------------------------------------|---------------------------------------------|--

Stave 6:

E|----------------------------------------------------------------------|--
B|--12--12h13p12--12--12h13p12--12h13p12--12h13p12--12h13p12--12h13p12--|--
G|----------------------------------------------------------------------|--
D|----------------------------------------------------------------------|--
A|----------------------------------------------------------------------|--
E|----------------------------------------------------------------------|--

Stave 7:

E|-------------------------------12---------13p12-----12v-----12h13p12h13p12h13p12--12h13h15h16/17--|--
B|--13------12h13--15--12h13h15------13h15----------------------------------------------------------|--
G|------14------------------------------------------------------------------------------------------|--
D|--------------------------------------------------------------------------------------------------|--
A|--------------------------------------------------------------------------------------------------|--
E|--------------------------------------------------------------------------------------------------|--

Stave 8:

E|-----------------------------------|--
B|--------------------------------8--|--
G|--------------------7------7h9-----|--
D|--7h9p7--10--7h9p7-----10----------|--
A|-----------------------------------|--
E|-----------------------------------|--

Stave 9:

E|--8------7-----8------7--|--12h13p12--12h13p12--12h13p12--12h13p12--12v-----12--------------|--
B|-----10-----8-----10-----|------------------------------------------------------15--13------|--
G|-------------------------|--------------------------------------------------------------16--|--
D|-------------------------|------------------------------------------------------------------|--
A|-------------------------|------------------------------------------------------------------|--
E|-------------------------|------------------------------------------------------------------|--

Stave 10:

E|------------------------------------------15--|--
B|--------------------------15------15--17------|--
G|--14h16p14--17--14h16p14------17--------------|--
D|----------------------------------------------|--
A|----------------------------------------------|--
E|----------------------------------------------|--

Stave 11:

E|--12h13p12--12h13p12--12h13p12--12h13p12--|--12h13p12--12h13p12--12h13p12--12h13p12----------12h13p12--
B|------------------------------------------|------------------------------------------12--12------------
G|------------------------------------------|------------------------------------------------------------
D|------------------------------------------|------------------------------------------------------------
A|------------------------------------------|------------------------------------------------------------
E|------------------------------------------|------------------------------------------------------------

Stave 12:

E|--12h13p12h13--12h13h15h16/17--|----------------------------------------12h15--|--
B|-------------------------------|------------------------------12h13h15---------|--
G|-------------------------------|-------------------12h14--14-------------------|--
D|-------------------------------|------------12h14------------------------------|--
A|-------------------------------|--12h14h15-------------------------------------|--
E|-------------------------------|-----------------------------------------------|--

Stave 13:

E|----------------------------------------|------------------------------|--
B|--13p12--10-----------------------------|------------------------------|--
G|-------------12--10v--13--9-------------|------------------------------|--
D|----------------------------------------|--14h15p14h15p14h15p14h15p14--|--
A|-----------------------------12\7--3p0--|------------------------------|--
E|----------------------------------------|------------------------------|--

Stave 14:

E|------------------------------------------15--|--
B|--------------------------15------15--17------|--
G|--14h16p14--17--14h16p14------17--------------|--
D|----------------------------------------------|--
A|----------------------------------------------|--
E|----------------------------------------------|--

Stave 15:

E|--------------12--13--------------12--13--13--|--12h13p12h13p12h13p12------------------------
B|----------12------------------12--------------|----------------------------------------------
G|------14------------------14------------------|----------------------------------------------
D|--14------------------14----------------------|------------------------14h15p14h15p14h15p14--
A|----------------------------------------------|----------------------------------------------
E|----------------------------------------------|----------------------------------------------

Stave 16:

E|--12v-----12h13p12h13p12h13p12h13p12---------------|--------------------------------|------|--
B|--------------------------------------13v-----13v--|--------------------------------|------|--
G|---------------------------------------------------|----------------------------14--|--14--|--
D|---------------------------------------------------|-----------------10--14---------|--14--|--
A|---------------------------------------------------|--0--0--3--7--------------------|--12--|--
E|---------------------------------------------------|--------------------------------|------|--

http://www.guitartabcreator.com
Guitar Tab Creator is intended to store guitar tab created through the tool. It currently does not support in-line text editing. Any text you place in here will be lost. If you need to comment on your tab, please use the "Tab Notes" section located below.