Sound will begin in 5 seconds

revolta

01234567891011121314151617181920212223
E
B
G
D
A
E
B
0 1 2 3 4 5 6 7 8 9 10 11 12 13 14 15 16 17 18 19 20 21 22 23
Song Science #1: How Pros Use 6 Chords to Write Hit Songs
(/) Slide Up  (\) Slide Down  (h) Hammer On  (p) Pull Off  (b) Bend (r) Release (v) Vibrato

Stave 1:

G|--------------5-----
D|--------5--7--------
A|--5--7-----------0--
E|--------------------

Stave 2:

G|--9--7-------------------------
D|--------10--9--7---------------
A|------------------10--8--7-----
E|----------------------------5--

Stave 3:

G|-----------------------------
D|--------7-----7--8--7--------
A|--7--8-----8-----------8-----
E|--------------------------5--

Stave 4:

G|--------------------------------
D|--------------------------------
A|--7--------7--------7-----------
E|-----8--9-----8--9-----8--9--5--

Stave 5:

G|--------------------------------------2--
D|-----------2-----2--3--2--3--5--3--5-----
A|--5--3--5-----5--------------------------
E|-----------------------------------------

http://www.guitartabcreator.com
Guitar Tab Creator is intended to store guitar tab created through the tool. It currently does not support in-line text editing. Any text you place in here will be lost. If you need to comment on your tab, please use the "Tab Notes" section located below.