Sound will begin in 5 seconds

Arpeggio Sweep Picking and Alternate Picking Practce

01234567891011121314151617181920212223
E
B
G
D
A
E
B
0 1 2 3 4 5 6 7 8 9 10 11 12 13 14 15 16 17 18 19 20 21 22 23
(/) Slide Up  (\) Slide Down  (h) Hammer On  (p) Pull Off  (b) Bend (r) Release (v) Vibrato

Stave 1: CMaj7 Dmin7 Emin7

E|--------------------3--7-----------------------5--8------------------------7--10--
B|-----------------5--------------------------6---------------------------8---------
G|-----------4--5-----------------------5--7------------------------7--9------------
D|--------5--------------------------7---------------------------9------------------
A|--3--7-----------------------5--8-----------------------7--10---------------------
E|----------------------------------------------------------------------------------

Stave 2: FMaj7 G7 Amin7

E|------------------------8--12-----------------------------10--13-----------------------------12--15--
B|--------------------10--------------------------------12---------------------------------13----------
G|-------------9--10----------------------------10--12-----------------------------12--14--------------
D|---------10-------------------------------12---------------------------------14----------------------
A|--8--12---------------------------10--14-----------------------------12--15--------------------------
E|-----------------------------------------------------------------------------------------------------

Stave 3: B min7(b5) CMaj7

E|------------------------------17-----------------------------15--19--
B|----------------------15--18-----------------------------17----------
G|--------------14--16-----------------------------16--17--------------
D|----------15---------------------------------17----------------------
A|--14--17-----------------------------15--19--------------------------
E|---------------------------------------------------------------------

Stave 4:

E|------------------3h7p3---------------------------------5h8p5--------------------
B|---------------5---------5---------------------------6---------6-----------------
G|----------4h5---------------5p4-----------------5/7---------------7p5------------
D|-------5-------------------------5-----------7-------------------------7---------
A|--3h7-------------------------------7p3/5h8-------------------------------8p5/---
E|---------------------------------------------------------------------------------

Stave 5:

E|-------------------7h10p7--------------------------------------8h12p8---------------------
B|----------------8----------8-------------------------------10----------10-----------------
G|-----------7h9----------------9p7--------------------9h10------------------10p9-----------
D|--------9--------------------------9-------------10------------------------------10-------
A|--7h10--------------------------------10p7/8h12--------------------------------------12p8/
E|------------------------------------------------------------------------------------------

Stave 6:

E|------------------------10h13p10---------------------------------------------12h15p12-----------------
B|--------------------12------------12-------------------------------------13------------13-------------
G|-------------10h12--------------------12p10-----------------------12h14--------------------14p12------
D|---------12----------------------------------12---------------14----------------------------------14--
A|--10h14------------------------------------------14p10/12h15------------------------------------------
E|------------------------------------------------------------------------------------------------------

Stave 7:

E|------------------------------13h17p13---------------------------------
B|--------------------------15------------15-----------------------------
G|-------------------14h16--------------------16p14----------------------
D|---------------15----------------------------------15------------------
A|--15p12/14h17------------------------------------------17p14/15--------
E|-----------------------------------------------------------------------

http://www.guitartabcreator.com
Guitar Tab Creator is intended to store guitar tab created through the tool. It currently does not support in-line text editing. Any text you place in here will be lost. If you need to comment on your tab, please use the "Tab Notes" section located below.