Sound will begin in 5 seconds

Sally's song Full

01234567891011121314151617181920212223
E
B
G
D
A
E
B
0 1 2 3 4 5 6 7 8 9 10 11 12 13 14 15 16 17 18 19 20 21 22 23
Song Science #1: How Pros Use 6 Chords to Write Hit Songs
(/) Slide Up  (\) Slide Down  (h) Hammer On  (p) Pull Off  (b) Bend (r) Release (v) Vibrato

Stave 1:

E|--------------------------------
B|--------------------------------
G|------9--12--14------9----------
D|--12-------------12-----12--13--
A|--------------------------------
E|--------------------------------

Stave 2:

E|----------------------------------
B|----------------------------------
G|------12--14--15--12--------------
D|--13------------------14--11--12--
A|----------------------------------
E|----------------------------------

Stave 3:

E|---------------------------------
B|---------------------------------
G|--14--14--15--17--9--12--14--12--
D|---------------------------------
A|---------------------------------
E|---------------------------------

Stave 4:

E|----------------------------------
B|----------------------------------
G|--12--14--15--15--12--------------
D|----------------------14--11--12--
A|----------------------------------
E|----------------------------------

Stave 5:

E|---------------------------------
B|---------------------------------
G|--14--14--15--17--9--12--14--12--
D|---------------------------------
A|---------------------------------
E|---------------------------------

Stave 6:

E|-----------------------------------------
B|-----------------------------------------
G|--12--14--15--15--14----------12--12--9--
D|----------------------14--14-------------
A|-----------------------------------------
E|-----------------------------------------

Stave 7:

E|------------------------------------------------------------------
B|------------------------------------------------------------------
G|--15--12--------------------------9------------------------9------
D|----------13--12--12--11--12--14-----12----12--11--12--14-----12--
A|------------------------------------------------------------------
E|------------------------------------------------------------------

Stave 8:

E|--------------------------------
B|--------------------------------
G|------9--12--14------9----------
D|--12-------------12-----12--13--
A|--------------------------------
E|--------------------------------

Stave 9:

E|----------------------------------
B|----------------------------------
G|------12--14--15--12--------------
D|--13------------------14--11--12--
A|----------------------------------
E|----------------------------------

Stave 10:

E|---------------------------------
B|---------------------------------
G|--14--14--15--17--9--12--14--12--
D|---------------------------------
A|---------------------------------
E|---------------------------------

Stave 11:

E|-------------------------------------------
B|-------------------------------------------
G|--12--14--15--15--14------------12--12--9--
D|------------------------14--14-------------
A|-------------------------------------------
E|-------------------------------------------

Stave 12:

E|--------------------------------------------------------------------
B|--------------------------------------------------------------------
G|--15--12----------------------------9------------------------9------
D|----------13--12----12--11--12--14-----12----12--11--12--14-----12--
A|--------------------------------------------------------------------
E|--------------------------------------------------------------------

http://www.guitartabcreator.com
Guitar Tab Creator is intended to store guitar tab created through the tool. It currently does not support in-line text editing. Any text you place in here will be lost. If you need to comment on your tab, please use the "Tab Notes" section located below.