Sound will begin in 5 seconds

Portal- Still Alive

01234567891011121314151617181920212223
E
B
G
D
A
E
B
0 1 2 3 4 5 6 7 8 9 10 11 12 13 14 15 16 17 18 19 20 21 22 23
Song Science #1: How Pros Use 6 Chords to Write Hit Songs
(/) Slide Up  (\) Slide Down  (h) Hammer On  (p) Pull Off  (b) Bend (r) Release (v) Vibrato

Stave 1:

E|----------------------------------------------------------
B|----------------------------------------------------------
G|--12--11--9--9--11----------2--12--11--9--9--11--7--9--2--
D|----------------------------------------------------------
A|----------------------------------------------------------
E|----------------------------------------------------------

Stave 2:

E|--------------------------------------
B|--------------------------------------
G|--2--9--11--12--9--6--7--9--2--2--11--
D|--------------------------------------
A|--------------------------------------
E|--------------------------------------

Stave 3:

E|---------------------------------------------------
B|---------------------------------------------------
G|--9--11--12--9--6--7--9------2--7--9--10--9--7--5--
D|---------------------------------------------------
A|---------------------------------------------------
E|---------------------------------------------------

Stave 4:

E|---------------------------------------
B|---------------------------------------
G|--2--3--5--10--9--7--7--5--7--5--5--5--
D|---------------------------------------
A|---------------------------------------
E|---------------------------------------

Stave 5:

E|-------------------------------------------
B|-------------------------------------------
G|--2--3--5--10--12--10--9--7--7--9--10--10--
D|-------------------------------------------
A|-------------------------------------------
E|-------------------------------------------

Stave 6:

E|------------------------------------------------------------------------------------
B|------------------------------------------------------------------------------------
G|--12--14--15--15--14--12----10--12--14--14--12--10--7--5--7--10--10--9--10--11--11--
D|------------------------------------------------------------------------------------
A|------------------------------------------------------------------------------------
E|------------------------------------------------------------------------------------

http://www.guitartabcreator.com
Guitar Tab Creator is intended to store guitar tab created through the tool. It currently does not support in-line text editing. Any text you place in here will be lost. If you need to comment on your tab, please use the "Tab Notes" section located below.